Oops, an error
Loading. Please wait.

Fragile Tension Tab

version 1
version 1

Whole song

2,750 views 3 this week
1 commentread comment
1 2 3 4 5
poor
x 2
add to favorites
launch autoscroll
font size
0
reset
how to read this tab
guitar tuner
Tab Pro tools
  • play this tab
  • loop segment
  • change instrument
  • show fretboard
  • metronome
Autoscroll
slow
fast
+/-
esc
set tempo
stop
-------------------------------------------------------------------------------
                             Fragile Tension - Depeche Mode
-------------------------------------------------------------------------------
Tabbed by: Dom
Email: misuerdomino@yahoo.com

Tuning: Standard

There's a bootleg of this floating around on the torrents, I dunno if it's a demo or 
but here's what I've got for it

Verse

These are the implied chords.

      F#Maj   G#Maj   A#Maj   C#Maj   BMaj

e|------2-------4-------6--------9------7------------------------------------|
B|------2-------4-------6--------9------7------------------------------------|
G|------3-------5-------7--------10-----8------------------------------------|
D|------4-------6-------8--------11-----9------------------------------------|
A|------4-------6-------8--------11-----9------------------------------------|
E|------2-------4-------6--------9------7------------------------------------|


Also, at regular intervals through the verse, Mart plays this tiny riff, with or without 
at different points.


     F#Maj    F#Maj    G#Maj   G#Maj  A#Maj   A#Maj   C#Maj  BMaj
e|----------|--------|--------|------|------|--------|------|-------|--------|
B|----------|--------|--------|------|------|--------|------|-------|--------|
G|----------|-----11-|--------|------|------|-----11-|------|----8--|--------|
D|----------|---11---|--------|------|------|---11---|------|-------|--------|
A|----------|--9-----|--------|------|------|--9-----|------|--6----|--------|
E|----------|--------|--------|------|------|--------|------|-------|--------|


Chorus

The chorus chord progression is the same as the verse progression; the chords are played 
distortion by sweeping up from the top string to the bottom string.


    F#Maj   G#Maj  A#Maj      C#Maj             BMaj
e|---2----|---4---|---6------|-------------------|---------------------------|
B|---2----|---4---|---6------|-------------------|---------------------------|
G|---3----|---5---|---7------|--/6-6-6-6-6-6-6-6-|-/9-9-9-9-9-9-9-9----------|
D|---4----|---6---|---8------|--/6-6-6-6-6-6-6-6-|-/9-9-9-9-9-9-9-9----------|
A|---4----|---6---|---8------|--/4-4-4-4-4-4-4-4-|-/7-7-7-7-7-7-7-7----------|
E|---2----|---4---|---6------|-------------------|---------------------------|


Bridge

The bridge sounds like it's just F#Maj over and over again

     F#Maj
e|----2--|
B|----2--|
G|----3--|
D|----4--|
A|----4--|
E|----2--|


Synth/Guitar Duel Solo

This call/answer solo is pretty much the same as the verse fill. The only thing that 
is the synth. The guitar just answers twice with this

e|--------|
B|--------|
G|-----11-|
D|---11---|
A|--9-----|
E|--------|
comments
We did not receive enough feedback on this tab! Please rate:
print report bad tab
1 2 3 4 5
1 comment total.
0 reply
DoYouWAnTto wrote on March 15 2009, 07:09 pm

Christ, no. This is all off.

I want to post or [tab]
guest
You may want to rate the tab now too:
select rating
Please do not post tabs as comments. Select "correction" instead!