Oops, an error
Loading. Please wait.

Heaven Tab

version 1
version 1

Whole song

Interactive

8,944 views 18 this week
2 commentsread comments
1 2 3 4 5
x 6
add to favorites
launch autoscroll
font size
0
reset
how to read this tab
guitar tuner
Autoscroll
slow
fast
+/-
esc
set tempo
stop
Help us to improve Ultimate-Guitar.com Take our survey!
×
Author
Difficulty
Capo
novice
1st fret
-------------------------------------------------------------------------------
                            Heaven - Depeche Mode
-------------------------------------------------------------------------------
Tabbed by: Myself
Email: cpochie92@gmail.com

Tuning: Standard

This is the second song revealed off of the upcoming album 'Delta Machine.'
My tab is taken in part from the album version as well as live performances. I find it's 
easiest to play with a capo on the 1st fret.


--Chords (Verse)--

Each chord gets a measure, so:


Bbm            Db7        Gb   Fm7
   Sometimes I slide away,     silently

--Verse Riffs--

This riff is played during the first verse during the live studio session; on the album 
version, it's played during the second verse and outro.

   Bbm    Db7    Gb        Fm7
e|------|-----|------|--------------|
B|------|-----|------|--------------|
G|------|-----|------|--------------|
D|------|-----|------|--------------|
A|------|-----|------|--8--6--------|
E|--/6--|--4--|--/6--|--------6/1---|


Martin plays this bit for the second verse, dubbed over the first verse riff; it's also 
played during the outro.

   Bbm    Db7   Gb     Fm7
e|--9---|--8--|--6--|--6--6--|
B|--6---|--6--|--6--|--9--7--|
G|--6---|--6--|--6--|--6--6--|
D|--8---|--6--|--8--|--6--6--|
A|------|-----|-----|--------|
E|------|-----|-----|--------|


--Chords (Chorus)--

These three chords repeat for the first three phrases of the chorus:


Ebm      Db      Bbm
   I dissolve in trust


At the end of each phrase during the Bbm, this riff is played:

          Bbm
e|--------------------|
B|--------------------|
G|--------------------|
D|-----------------6--|
A|-----------6--8-----|
E|--6--8--9-----------|


At the end of the chorus, after the Bbm, a Gbmaj7 is played, so:

Ebm      Db     Bbm          Gbmaj7
  I will end up dust; I'm in Heaven.
Suggest correction
comments
print report bad tab
2 comments total.
0 reply
Cattleya 10 Feb 05, 2013 06:34 AM

and the rest ?

0 reply
misuerdomino 415 Feb 05, 2013 10:04 AM

What of the rest? These are the only chord progressions used in the song, as far as I can tell.

guest
You may want to rate the tab now too:
select rating
Wanna post a correction for this tab? Suggest correction