Oops, an error
Loading. Please wait.

Here Is The House Bass Tab

13 views 1 this week
no commentswrite comment
1 2 3 4 5
2 more votes to show rating
add to favorites
launch autoscroll
font size
0
reset
guitar tuner
Autoscroll
slow
fast
+/-
esc
set tempo
stop
Help us to improve Ultimate-Guitar.com Take our survey!
×
Author
Difficulty
novice
Tuning : 

G
D
A
D# (Eb)


Bass Start - 00:04


[Intro, Chorus]

G |----------------|----------------|----------------|----------------| (x2)
D |----------------|----------------|----------------|----------------|
A |--3-3-----------|----------------|----------------|----------------|
D#|----------------|--0-0-----------|--5-5-----------|--4-4-----------|


G |------5---------|----------------|----------------|----------------|
D |----------------|------1---------|------6---------|------5---------|
A |--3-3-----------|----------------|----------------|----------------|
D#|----------------|--0-0-----------|--5-5-----------|--4-4-----------|


G |----------------|----------------|
D |------3---------|------3---------|
A |----------------|----------------|
D#|--5-5-----------|--5-5-----------|


[Interlude]

G |---------------|---------------|---------------|---------------| (x2)
D |---------------|---------------|---------------|---------5-3---|
A |-3-3---3-3-5-6-|-----------5-6-|-----------5-6-|-------------6-|
D#|---------------|-0-0---0-0-----|-5-5---5-5-----|-5-4---4-------|


[Verse 1]

G |---------------|---------------|---------------|-----------------| (x2)
D |---------------|---------------|---------5-6-5-|-----8-------8---|
A |-3-3---3-3-5-6-|-3-3---3-3-5-6-|---------------|-6-6---6-5-5---5-|
D#|---------------|---------------|-5-5---5-------|-----------------|


[Pre-Chorus]

G |-----------------|-----------------|-----------------|-----------------|
D |-----5-------5---|-----5-------5---|-----------------|-----------------|
A |-3-3---3-3-3---3-|-----------------|-----8-------8---|-----8-------8---|
D#|-----------------|-7-7---7-7-7---7-|-6-6---6-6-6---6-|-6-6---6-6-6---6-|


G |-----------------|-----------------|
D |-----------------|-----------------|
A |-----8-------8---|-----8-------8---|
D#|-5-5---5-5-5---5-|-5-5---5-5-5---5-|


[Chorus]

G |-----------------|-----------------|-----------------|-----------------| (x3)
D |-----3-5---------|-----3-5---------|-----3-5---------|-----3-5---5-3---|
A |-3-3-----3-3-5-6-|-------------5-6-|-------------5-6-|---------------6-|
D#|-----------------|-0-0-----0-0-----|-5-5-----5-5-----|-4-4-----4-------|


G |----------------|----------------|
D |-----3----------|-----3----------|
A |----------------|----------------|
D#|-5-5------------|-5-5------------|


[Interlude]

G |-----------------|-----------------|-----------------|-----------------| (x2)
D |-----3-5---------|-----3-5---------|-----3-5---------|-----3-5---5-3---|
A |-3-3-----3-3-5-6-|-------------5-6-|-------------5-6-|---------------6-|
D#|-----------------|-0-0-----0-0-----|-5-5-----5-5-----|-4-4-----4-------|


[Verse 2]

G |-----------------|-----------------|-----------------|-----------------| (x2)
D |-----3-5---------|-----3-5---------|-----3-5---5-6-5-|-----8-------8---|
A |-3-3-----3-3-5-6-|-3-3-----3-3-5-6-|-----------------|-6-6---6-5-5---5-|
D#|-----------------|-----------------|-5-5-----5-------|-----------------|


[Pre-Chorus]

G |-----------------|-----------------|-----------------|-----------------|
D |-----5-------5---|-----5-------5---|-----------------|-----------------|
A |-3-3---3-3-3---3-|-----------------|-----8-------8---|-----8-------8---|
D#|-----------------|-7-7---7-7-7---7-|-6-6---6-6-6---6-|-6-6---6-6-6---6-|


G |-----------------|-----------------|-----------------|-----------------|
D |-----------------|-----------------|-----------------|-----------------|
A |-----8-------8---|-----8-------8---|-----8-------8---|-----8-------8---|
D#|-5-5---5-5-5---5-|-5-5---5-5-5---5-|-6-6---6-6-6---6-|-6-6---6-6-6---6-|


G |-----------------|-----------------|
D |-----------------|-----------------|
A |-----8-------8---|-----8-------8---|
D#|-5-5---5-5-5---5-|-5-5---5-5-5---5-|


G |-----------------|-----------------|-----------------|-----------------| (x2)
D |-----3-5---------|-----3-5---------|-----3-5---------|-----3-5---5-3---|
A |-3-3-----3-3-5-6-|-------------5-6-|-------------5-6-|---------------6-|
D%|-----------------|-0-0-----0-0-----|-5-5-----5-5-----|-4-4-----4-------|


[Chorus]

G |-----------------|-----------------|-----------------|-----------------| (x9)
D |-----3-5---------|-----3-5---------|-----3-5---------|-----3-5---5-3---|
A |-3-3-----3-3-5-6-|-------------5-6-|-------------5-6-|---------------6-|
D#|-----------------|-0-0-----0-0-----|-5-5-----5-5-----|-4-4-----4-------|


[Outro]

G |----------------|----------------|----------------|----------------|
D |----------------|----------------|----------------|----------------|
A |----------------|----------------|--3-3-----------|----------------|
D#|----------------|----------------|----------------|--0-0-----------|


G |----------------|----------------|
D |----------------|----------------|
A |----------------|----------------|
D#|--5-5-----------|--4-4-----------|



****************************

in regular sequence!

****************************
Suggest correction
Give kudos to tab author, rate the tab!
1 2 3 4 5
comments
print report bad tab
guest
You may want to rate the tab now too:
select rating
Wanna post a correction for this tab? Suggest correction