Oops, an error
Loading. Please wait.

Home Tab

version 1
version 1

Whole song

Interactive

7,275 views 1 this week
3 commentsread comments
1 2 3 4 5
accurate
x 3
add to favorites
launch autoscroll
font size
0
reset
how to read this tab
guitar tuner
Tab Pro tools
  • play this tab
  • loop segment
  • change instrument
  • show fretboard
  • metronome
Autoscroll
slow
fast
+/-
esc
set tempo
stop
#----------------------------------PLEASE NOTE---------------------------------#
#This file is the author's own work and represents their interpretation of the #
#song. You may only use this file for private study, scholarship, or research. #
#------------------------------------------------------------------------------#
#

{title: Home}
{subtitle: Depeche Mode - 'Ultra' (97)}


{define: C    - 032010}
{define: C7   - 032310 or 335353}
{define: D    - xx0232}
{define: Dm   - xx0231}
{define: A    - 002220}
{define: A7   - 002020}
{define: Am   - 002210}
{define: E#m  - 133111}
{define: E#m6 - 133131}
{define: B7   - 113131}
{define: Gm+7 - 354533 <-?}

[C]
[C]Here is a song
>From the wrong side of town
Where I'm bound
To the ground
By the [C7]loneliest [C]sound
That pounds from within
And is [E#m6]pinning me down

[C]

Here is a page
>From the emptiest stage
A cage or the heaviest [C7]cross ever [C]made
A gauge of the deadliest [E#m6]trap ever laid

[E#m]And I thank you
For [Am]bringing me here
For [Dm]showing me [E#]home
For [Am]singing these tears
[E#]Finally [Gm+7]I've found
That [E#m6]I [E#m]belong here [C]

[C] [C7] [E#m] [E#m6] [B7]

The [C]heat and the [C7]sickliest
[E#m]Sweet smelling [E#m6]sheets [B7]
That [C]cling to the [C7]backs of my [E#m]knees
And my [E#m6]feet [B7]
I'm [C]drowning in [C7]time
To a [E#m]desperate [E#m6]beat

[E#m]And I thank you
For [Am]bringing me here
For [Dm]showing me [E#]home
For [Am]singing these tears
[E#]Finally [Gm+7]I've found
That [E#m6]I belong[Dm]

[Dm7]Feels like [B]home [Dm]
[A] [A7]I should have [Dm]known
[E#m6] [E#m6]From my first breath [C]

[C] [C7] [E#m] [E#m6] [B7]

[C7]God send the [C7]only true friend[E#m]
I call [E#m6]mine [B7]
[C]Pretend [C7]that I'll make amends[E#m]
The next [E#m6]time [B7]
[C]Befriend the [E#m]glorious [E#m6]end of the line

[E#m]And I thank you
For [Am]bringing me here
For [Dm]showing me [E#]home
For [Am]singing these tears
[E#]Finally [Gm+7]I've found
That [E#m6]I [E#m]belong here [Dm]

  Dm          E#        Am          C         Dm          E#        Am          C
E-------0-1-3-1-0-1-0-|-------0-1-3-1-0-1-0-|-8-----0-1-3-1-0-1-0-|-------0-1-3-1-0-1-0-|
B---------------------|-1-------------------|---------------------|-1-------------------|
G---------------------|---------------------|---------------------|---------------------|
D---------------------|---------------------|---------------------|---------------------|
A---------------------|---------------------|---------------------|---------------------|
E---------------------|---------------------|---------------------|---------------------|

  Dm          E#        E#m6
E-8-----0-1-3-1-0-1-0-|-0-1-0-1-0-1-0-------|
B---------------------|---------------------|
G---------------------|---------------------|
D---------------------|---------------------|
A---------------------|---------------------|
E---------------------|---------------------|

[Dm] [E#] [Am] [C] ...


{comment: ughhh... if here is something wrong (and I guess there is), please, e-mail me}
{comment: or e-mail me for no special reason...  :-)}

---------------------------------------
From: Max Stepanov, Russia, St.Petersburg
e-mail: profi@dux.ru
---------------------------------------
17 June 1997
comments
We did not receive enough feedback on this tab! Please rate:
print report bad tab
1 2 3 4 5
3 comments total.
0 reply
johnpulovsky wrote on April 26 2006, 07:09 am

This sounds great

0 reply
darcknight49 wrote on June 5 2006, 04:45 pm

The solo isnt played there but oh well

0 reply
C-C Beatroot wrote on April 27 2008, 08:37 am

I play this for the solo

  Dm          E#        Am          C         Dm          E#        Am          C
E---------------------|---------------------|-3-------------------|---------------------|
B-------0-1-3-1-0-1-0-|-------0-1-3-1-0-1-0-|-------0-1-3-1-0-1-0-|-------0-1-3-1-0-1-0-|
G---------------------|-0-------------------|---------------------|-0-------------------|
D---------------------|---------------------|---------------------|---------------------|
A---------------------|---------------------|---------------------|---------------------|
E---------------------|---------------------|---------------------|---------------------|

Dm E# E#m6
E-3-------------------|---------------------|
B-------0-1-3-1-0-1-0-|-0-1-0-1-0-1-0-------|
G---------------------|---------------------|
D---------------------|---------------------|
A---------------------|---------------------|
E---------------------|---------------------|


Just down a string basically

I want to post or [tab]
guest
You may want to rate the tab now too:
select rating
Please do not post tabs as comments. Select "correction" instead!