Oops, an error
Loading. Please wait.

Just Cant Get Enough Tab

version 1
version 1

Intro

Whole song

Interactive

3,574 views 3 this week
1 commentread comment
1 2 3 4 5
excellent!
x 6
add to favorites
launch autoscroll
font size
0
reset
how to read this tab
guitar tuner
Autoscroll
slow
fast
+/-
esc
set tempo
stop
Help us to improve Ultimate-Guitar.com Take our survey!
×
Author
Difficulty
novice
E-------------------------------------------------------------------------------|
A-------------------------------------------------------------------------------|
D-------------------------------------------------------------------------------|
G-------------------------------------------------------------------------------|
B-----------0-2---------0-2--------0-2-3-2-0-2----------------------------------|
E--3-3-3--3----3-3-3--3----3-3-3--3---------------------------------------------|

Et vous enchaînez cela pour avoir le rythme :) c'est simple et amusant.
Suggest correction
comments
print report bad tab
1 comment total.
0 reply
dgaskell21 39 wrote on April 14 2014, 07:46 am

Nice tab, can also play it:
e-15-15-15-15-15------15-15-15-15-15-------15-15-15-15-15------------------|
b----------------10-12---------------10-12---------------10-12-13-12-10-12-|

guest
You may want to rate the tab now too:
select rating
Please do not post tabs as comments. Select "correction" instead!