Oops, an error
Loading. Please wait.

Lie To Me Bass Tab

version 1
version 1

Whole song

Interactive

49 views 1 this week
no commentswrite comment
1 2 3 4 5
3 more votes to show rating
add to favorites
launch autoscroll
font size
0
reset
guitar tuner
Autoscroll
slow
fast
+/-
esc
set tempo
stop
Help us to improve Ultimate-Guitar.com Take our survey!
×
Author
Difficulty
novice
Bass Start - 00:08


[Intro]

G|--------------------|--------------------|--------------------|--------------------| (x3)
D|--------------------|--------------------|--------------------|--------------------|
A|--x-x-2--2--4--4-5--|--------------------|--x-x-2--2--4--4-5--|--------------------|
E|--------------------|--x-x-3--3--5--5-6--|--------------------|--x-x-3--3--5--5-6--|


[Verse 1]

G|--------------------|--------------------|--------------------|--------------------| (x2)
D|--------------------|--------------------|--------------------|--------------------|
A|--x-x-2--2--4--4-5--|--------------------|--x-x-2--2--4--4-5--|--------------------|
E|--------------------|--x-x-3--3--5--5-6--|--------------------|--x-x-3--3--5--5-6--|


G|-------------------------------------------| (x2)
D|-------------------------------------------|
A|--x-x-2--2--4--4--5--5--4--4--2----0----2--|
E|-------------------------------------------|


[Verse 2]

G|--------------------|--------------------|--------------------|--------------------| (x4)
D|--------------------|--------------------|--------------------|--------------------|
A|--x-x-2--2--4--4-5--|--------------------|--x-x-2--2--4--4-5--|--------------------|
E|--------------------|--x-x-3--3--5--5-6--|--------------------|--x-x-3--3--5--5-6--|


[Chorus]

G|-----------------|---------------|---------------|---------------|
D|-----2-------2---|----4------4---|----2------2---|----4------4---|
A|-----------------|---------------|---------------|---------------|
E|--x-----x-x----x-|-x-----x-x---x-|-x-----x-x---x-|-x-----x-x---x-|


G|-----------------|---------------|---------------|----------|
D|-----2-------2---|----4------4---|----2------2---|----------|
A|-----------------|---------------|---------------|----------|
E|--x-----x-x----x-|-x-----x-x---x-|-x-----x-x---x-|-x--x--x--|


[Verse 3]

G|--------------------|--------------------|--------------------|--------------------| (x2)
D|--------------------|--------------------|--------------------|--------------------|
A|--x-x-2--2--4--4-5--|--------------------|--x-x-2--2--4--4-5--|--------------------|
E|--------------------|--x-x-3--3--5--5-6--|--------------------|--x-x-3--3--5--5-6--|


G|-------------------------------------------| (x2)
D|-------------------------------------------|
A|--x-x-2--2--4--4--5--5--4--4--2----0----2--|
E|-------------------------------------------|


[Instrumental]

G|--------------------|--------------------|--------------------|--------------------| (x2)
D|--------------------|--------------------|--------------------|--------------------|
A|--x-x-2--2--4--4-5--|--------------------|--x-x-2--2--4--4-5--|--------------------|
E|--------------------|--x-x-3--3--5--5-6--|--------------------|--x-x-3--3--5--5-6--|


[Verse 4]

G|--------------------|--------------------|--------------------|--------------------| (x4)
D|--------------------|--------------------|--------------------|--------------------|
A|--x-x-2--2--4--4-5--|--------------------|--x-x-2--2--4--4-5--|--------------------|
E|--------------------|--x-x-3--3--5--5-6--|--------------------|--x-x-3--3--5--5-6--|


[Chorus]

G|-----------------|---------------|---------------|---------------|
D|-----2-------2---|----4------4---|----2------2---|----4------4---|
A|-----------------|---------------|---------------|---------------|
E|--x-----x-x----x-|-x-----x-x---x-|-x-----x-x---x-|-x-----x-x---x-|


G|-----------------|---------------|---------------|----------|
D|-----2-------2---|----4------4---|----2------2---|----------|
A|-----------------|---------------|---------------|----------|
E|--x-----x-x----x-|-x-----x-x---x-|-x-----x-x---x-|-x--x--x--|


[Verse 5]

G|--------------------|--------------------|--------------------|--------------------| (x4)
D|--------------------|--------------------|--------------------|--------------------|
A|--x-x-2--2--4--4-5--|--------------------|--x-x-2--2--4--4-5--|--------------------|
E|--------------------|--x-x-3--3--5--5-6--|--------------------|--x-x-3--3--5--5-6--|


G|-------------------------------------------| (x2)
D|-------------------------------------------|
A|--x-x-2--2--4--4--5--5--4--4--2----0----2--|
E|-------------------------------------------|


* 4:08 ~ 4:24 - Rest 


[Outro] (repeat until the end)

G|--------------------|--------------------|--------------------|--------------------| 
D|--------------------|--------------------|--------------------|--------------------|
A|--x-x-2--2--4--4-5--|--------------------|--x-x-2--2--4--4-5--|--------------------|
E|--------------------|--x-x-3--3--5--5-6--|--------------------|--x-x-3--3--5--5-6--|



***********************

| x : dead note

***********************

in regular sequence!
Suggest correction
Give kudos to tab author, rate the tab!
1 2 3 4 5
comments
print report bad tab
guest
You may want to rate the tab now too:
select rating
Wanna post a correction for this tab? Suggest correction