Oops, an error
Loading. Please wait.

Little 15 Bass Tab

version 1
version 1

Whole song

Interactive

16 views 1 this week
no commentswrite comment
1 2 3 4 5
3 more votes to show rating
add to favorites
launch autoscroll
font size
0
reset
guitar tuner
Autoscroll
slow
fast
+/-
esc
set tempo
stop
Help us to improve Ultimate-Guitar.com Take our survey!
×
Author
Difficulty
novice
[Intro]

G|--------------------------|-------------------------|
D|------5-----5-----5-----4-|-----4-----4-----4-----5-|
A|--7-----7-----7-----7-----|-6-----6-----6-----6-----|
E|--------------------------|-------------------------|


G|-------------------------|-------------------------|
D|-----5-----5-----5-----4-|-----4-----4-----4-----5-|
A|-7-----7-----7-----7-----|-6-----6-----6-----6-----|
E|-------------------------|-------------------------|


[Verse 1] 

G|-------------------------|-------------------------| (x3)
D|-----5-----5-----5-----4-|-----4-----4-----4-----5-|
A|-7-----7-----7-----7-----|-6-----6-----6-----6-----|
E|-------------------------|-------------------------|


G|-------------------------|-------------------------|
D|-----5-----5-----5-----4-|-----4-----4-----4-------|
A|-7-----7-----7-----7-----|-6-----6-----6-----6---3-|
E|-------------------------|-------------------------|


G|-------------------------|-------------------------|
D|-------------------------|-----1-----1-----1-----1-|
A|-----3-----3-----3-----3-|-2-----2-----2-----2-----|
E|-5-----5-----5-----5-----|-------------------------|


G|-------------------------|----------------|
D|-------------------------|-----1-----1----|
A|-0---3-----3-----3-----3-|-2-----2-----2--|
E|-------5-----5-----5-----|----------------|


[Instrumental]

G|-------------------------|-------------------------| 
D|-----5-----5-----5-----4-|-----4-----4-----4-----5-|
A|-7-----7-----7-----7-----|-6-----6-----6-----6-----|
E|-------------------------|-------------------------|


G|-------------------------|-------------------------|
D|-----5-----5-----5-----4-|-----4-----4-----4-----5-|
A|-7-----7-----7-----7-----|-6-----6-----6-----6-----|
E|-------------------------|-------------------------|


[Verse 2]

G|-------------------------|-------------------------| (x3)
D|-----5-----5-----5-----4-|-----4-----4-----4-----5-|
A|-7-----7-----7-----7-----|-6-----6-----6-----6-----|
E|-------------------------|-------------------------|


G|-------------------------|-------------------------|
D|-----5-----5-----5-----4-|-----4-----4-----4-------|
A|-7-----7-----7-----7-----|-6-----6-----6-----6---3-|
E|-------------------------|-------------------------|


G|-------------------------|-------------------------|
D|-------------------------|-----1-----1-----1-----1-|
A|-----3-----3-----3-----3-|-2-----2-----2-----2-----|
E|-5-----5-----5-----5-----|-------------------------|


G|-------------------------|----------------|
D|-------------------------|-----1-----1----|
A|-0---3-----3-----3-----3-|-2-----2-----2--|
E|-------5-----5-----5-----|----------------|


[Instrumental]

G|--------------------------|-------------------------|
D|------2-----2-----2-----1-|-----1-----1-----1-----2-|
A|--4-----4-----4-----4-----|-3-----3-----3-----3-----|
E|--------------------------|-------------------------|


G|-------------------------|-------------------------|
D|-----2-----2-----2-----1-|-----1-----1-----1-------|
A|-4-----4-----4-----4-----|-3-----3-----3-----3---0-|
E|-------------------------|-------------------------|


G|-------------------------|-------------------------|
D|-------------------------|-------------------------|
A|-----0-----0-----0-----0-|-----3-----3-----3-----0-|
E|-2-----2-----2-----2-----|-4-----4-----4-----4-----|


G|-------------------------|------------------|
D|-------------------------|------------------|
A|-----0-----0-----0-----0-|-----3-----3------|
E|-2-----2-----2-----2-----|-4-----4-----4----|


[Verse 3]

G|-------------------------|-------------------------| (x3)
D|-----4-----4-----4-----3-|-----3-----3-----3-----4-|
A|-6-----6-----6-----6-----|-5-----5-----5-----5-----|
E|-------------------------|-------------------------|


G|-------------------------|-------------------------|
D|-----4-----4-----4-----3-|-----3-----3-----3-------|
A|-6-----6-----6-----6-----|-5-----5-----5-----5---2-|
E|-------------------------|-------------------------|


[Outro]

G|-------------------------|-------------------------| (x3)
D|-------------------------|-----0-----0-----0-------|
A|-----2-----2-----2-----2-|-1-----1-----1-----1---2-|
E|-4-----4-----4-----4-----|-------------------------|


G|-------------------------|----------------|-----|-----|
D|-------------------------|-----0-----0----|-----|--1--|
A|-----2-----2-----2-----2-|-1-----1-----1--|--r--|-----|
E|-4-----4-----4-----4-----|----------------|-----|-----|



**************************

| r : rest

**************************

in regular sequence!
Suggest correction
Give kudos to tab author, rate the tab!
1 2 3 4 5
comments
print report bad tab
guest
You may want to rate the tab now too:
select rating
Wanna post a correction for this tab? Suggest correction