Oops, an error
Loading. Please wait.

Little 15 Tab

version 1
version 1

Intro

Interactive

3,664 views 6 this week
3 commentsread comments
1 2 3 4 5
3 more votes to show rating
add to favorites
launch autoscroll
font size
0
reset
how to read this tab
guitar tuner
×
Best way to learn
"Little 15"
Autoscroll
slow
fast
+/-
esc
set tempo
stop
Author
this is the intro (right I think)


 1 -0-----3--0-----3--0-------2----------2----------|
 2 ---0--------0---------0-------4--0--------4---0--|
 3 -------------------------------------------------|
 4 -------------------------------------------------|
 5 -------------------------------------------------|
 6 -------------------------------------------------|
Suggest correction
Give kudos to tab author, rate the tab!
1 2 3 4 5
comments
print report bad tab
3 comments total.
0 reply
shoe7ess 62 Nov 16, 2007 09:49 PM

I like the fact that this doesn't include that horribly written chord progression floating around the internet, but just
add the G and D strings so that they aren't triplets... like:


1
-0-----3--0-----3--0-------2----------2------------|
2 ---0--------0---------0-------4--0--------4--0-----|
3
-----0--------0---------0--------------------------|
4 -----------------------------------4-----------4---|
5
---------------------------------------------------|
6 ---------------------------------------------------|

0 reply
shoe7ess 62 Nov 16, 2007 09:49 PM

I like the fact that this doesn't include that horribly written chord progression floating around the internet, but just
add the G and D strings so that they aren't triplets... like:


1
-0-----3--0-----3--0-------2----------2------------|
2 ---0--------0---------0-------4--0--------4--0-----|
3
-----0--------0---------0--------------------------|
4 -----------------------------------4-----------4---|
5
---------------------------------------------------|
6 ---------------------------------------------------|

0 reply
shoe7ess 62 Nov 16, 2007 09:51 PM

dammit... those corrections didn't like up at all, but basically add the open G string at the end of the first 3 riff
segments, and the fourth fret of the D string at the end of the second 3 riff segments, sounds more sexily.

guest
You may want to rate the tab now too:
select rating
Wanna post a correction for this tab? Suggest correction