Oops, an error
Loading. Please wait.

Nodisco Chords

692 views 3 this week
1 commentread comment
1 2 3 4 5
3 more votes to show rating
add to favorites
launch autoscroll
font size
0
reset
transpose
0
reset
display chords
guitar tuner
Autoscroll
slow
fast
+/-
esc
set tempo
stop
Help us to improve Ultimate-Guitar.com Take our survey!
×
Author
Capo
3rd fret
Depeche Mode "Nodisco"
From Speak And Spell

Capo 3

Intro:

e|---------------|           |-------------------------|
B|---------------|           |-------------------------|
G|-2-5-4---------|           |-------------------------|
D|-------2-5-2---| x 10 then |-0---0-2h----------------| then repeat, cept play
A|---------------|           |---3------3-0-0----------| first part twice
E|---------------|           |-------------------------| as opposed to 10 times


A
I saw you in the picture
I saw you play the part
G            C  A
This ain't nodisco
A
There's a thousand watts in you
You take this too far
G            C  A
This ain't nodisco

D                                 Em
Sometimes when I wonder if you're taking a chance
D
This ain't nodisco
        Em
And you know how to dance

A    A  G  A
Move me disco
A              C   A
Baby don't you let go
Em
This ain't nodisco

Part one
Act one
Everyone pretend
This ain't nodisco
This is more a story
And we're reaching the end
This ain't nodisco

Always makes me happy when you're taking a chance
This ain't nodisco
And you know how to dance

Move me disco
Baby don't you let go
This ain't nodisco
Suggest correction
Give kudos to tab author, rate the tab!
1 2 3 4 5
comments
print report bad tab
1 comment total.
0 reply
iamjosh 339 Mar 08, 2004 12:00 AM

Arrrrgh! I screwed up the intro:
e|---------------
B|---------------
G|-2-5-4---------
D|-------2-5-2--- x 10
A|---------------
E|---------------
Sorry about that,
Josh

guest
You may want to rate the tab now too:
select rating
Wanna post a correction for this tab? Suggest correction