Oops, an error
Loading. Please wait.

Puppets Bass Tab

version 1
version 1

Whole song

Interactive

22 views 1 this week
no commentswrite comment
1 2 3 4 5
3 more votes to show rating
add to favorites
launch autoscroll
font size
0
reset
guitar tuner
Autoscroll
slow
fast
+/-
esc
set tempo
stop
Help us to improve Ultimate-Guitar.com Take our survey!
×
Author
Difficulty
novice
Bass Start - 00:14


[Verse 1]

G|-----------------|-----------------|-----------------|-----------------|-----------------|
D|-----------------|-----------------|-----------------|-----------------|-----------------|
A|-7-7-7-7-7-7-7-5-|-7-7-7-7-7-7-7-7-|-7-7-7-7-7-7-7-7-|-5-5-5-5-5-5-5-5-|-7-7-7-7-7-7-7-7-|
E|-----------------|-----------------|-----------------|-----------------|-----------------|


G|-----------------|-----------------|-----------------|-----------------|
D|-----------------|-----------------|-----------------|-----------------|
A|-7-7-7-7-7-7-7-7-|-7-7-7-7-7-7-7-7-|-5-5-5-5-5-5-5-5-|-7-7-7-7-7-7-7-7-|
E|-----------------|-----------------|-----------------|-----------------|


G|-----------------|-----------------|-----------------|-----------------|
D|-7-7-7-7-7-7-7-7-|-7-7-7-7-7-7-7-7-|-9-9-9-9-9-9-9-9-|-9-9-9-9-9-9-9-9-|
A|-----------------|-----------------|-----------------|-----------------|
E|-----------------|-----------------|-----------------|-----------------|


G|----------------|----------------|
D|----------------|----------------|
A|-0--------------|----------------|
E|----------------|----------------|


[Interlude]

G|-----9-9-----9-9-|-------------------|-----7-7---------|-----9-9-----9-7-| 
D|-----------------|-----10-10---------|-----------------|-----------------|
A|-7-7-----7-7-----|---------------0---|-5-5-----5-5---5-|-7-7-----7-7-----|
E|-----------------|-8-8-------8-8---8-|-------------7---|-----------------|


G|-----9-9-----9-9-|-------------------|-----7-7---------|-----9-9-----9-9-| 
D|-----------------|-----10-10---------|-----------------|-----------------|
A|-7-7-----7-7-----|---------------0---|-5-5-----5-5---5-|-7-7-----7-7-----|
E|-----------------|-8-8-------8-8---8-|-------------7---|-----------------|


[Verse 2]

G|-----------------|-----------------|-----------------|-----------------| (x2)
D|-----------------|-----------------|-----------------|-----------------|
A|-7-7-7-7-7-7-7-7-|-7-7-7-7-7-7-7-7-|-5-5-5-5-5-5-5-5-|-7-7-7-7-7-7-7-7-|
E|-----------------|-----------------|-----------------|-----------------|


G|-----------------|-----------------|-----------------|-----------------|
D|-7-7-7-7-7-7-7-7-|-7-7-7-7-7-7-7-7-|-9-9-9-9-9-9-9-9-|-9-9-9-9-9-9-9-9-|
A|-----------------|-----------------|-----------------|-----------------|
E|-----------------|-----------------|-----------------|-----------------|


G|----------------|----------------|
D|----------------|----------------|
A|-0--------------|----------------|
E|----------------|----------------|


[Interlude]

G|-----9-9-----9-9-|-------------------|-----7-7---------|-----9-9-----9-7-| 
D|-----------------|-----10-10---------|-----------------|-----------------|
A|-7-7-----7-7-----|---------------0---|-5-5-----5-5---5-|-7-7-----7-7-----|
E|-----------------|-8-8-------8-8---8-|-------------7---|-----------------|


G|-----9-9-----9-9-|--------------------|-----7-7---------|-----9-9-----9-9-| 
D|-----------------|-----10-10-----10-7-|-----------------|-----------------|
A|-7-7-----7-7-----|--------------------|-5-5-----5-5---5-|-7-7-----7-7-----|
E|-----------------|-8-8-------8-8------|-------------7---|-----------------|


[Bridge]

G|-----------------|-----9-9-----9-9-|-----------------|-----9-9-----9-9-|
D|-----7-7-----7-7-|-----------------|-----7-7-----7-7-|-----------------|
A|-----------------|-7-7-----7-7-----|-----------------|-7-7-----7-7-----|
E|-5-5-----5-5-----|-----------------|-5-5-----5-5-----|-----------------|


G|-----------------|-----9-9-----9-9-|-------------------------|-------16-16-------16-16-|
D|-----7-7-----7-7-|-----------------|-------12-12-------12-12-|-------------------------|
A|-----------------|-7-7-----7-7-----|-------------------------|-14-14-------14-14-------|
E|-5-5-----5-5-----|-----------------|-10-10-------10-10-------|-------------------------|


[Instrumental]

G|-----9-9-----9-9-|-------------------|-----7-7---------|-----9-9-----9-7-| (x3)
D|-----------------|-----10-10---------|-----------------|-----------------|
A|-7-7-----7-7-----|---------------0---|-5-5-----5-5---5-|-7-7-----7-7-----|
E|-----------------|-8-8-------8-8---8-|-------------7---|-----------------|


G|-----9-9-----9-9-|--------------------|-----7-7---------|-----9-9-----9-9-| 
D|-----------------|-----10-10-----10-7-|-----------------|-----------------|
A|-7-7-----7-7-----|--------------------|-5-5-----5-5---5-|-7-7-----7-7-----|
E|-----------------|-8-8-------8-8------|-------------7---|-----------------|


[Interlude]

G|-----------------|-----------------|-----------------|-----------------| (x2)
D|-----------------|-----------------|-----------------|-----------------|
A|-7-7-7-7-7-7-7-7-|-7-7-7-7-7-7-7-7-|-7-7-7-7-7-7-7-7-|-7-7-7-7-7-7-7-7-|
E|-----------------|-----------------|-----------------|-----------------|


[Verse 3]

G|-----------------|-----------------|-----------------|-----------------| (x2)
D|-----------------|-----------------|-----------------|-----------------|
A|-7-7-7-7-7-7-7-7-|-7-7-7-7-7-7-7-7-|-5-5-5-5-5-5-5-5-|-7-7-7-7-7-7-7-7-|
E|-----------------|-----------------|-----------------|-----------------|


G|--------14-14-------14-14-|-------14-14-------14-14-|-------16---------16----|-------16-16-------16-16-|
D|--------------------------|-------------------------|------------------------|-------------------------|
A|-12-12--------12-12-------|-12-12-------12-12-------|-14-14----14-14-14---14-|-14-14-------14-14-------|
E|--------------------------|-------------------------|------------------------|-------------------------|


G|----------------|----------------|
D|----------------|----------------|
A|-0--------------|----------------|
E|----------------|----------------|


[Interlude]

G|-----9-9-----9-9-|-------------------|-----7-7---------|-----9-9-----9-7-| 
D|-----------------|-----10-10---------|-----------------|-----------------|
A|-7-7-----7-7-----|---------------0---|-5-5-----5-5---5-|-7-7-----7-7-----|
E|-----------------|-8-8-------8-8---8-|-------------7---|-----------------|


G|-----9-9-----9-9-|--------------------|-----7-7---------|-----9-9-----9-9-| 
D|-----------------|-----10-10-----10-7-|-----------------|-----------------|
A|-7-7-----7-7-----|--------------------|-5-5-----5-5---5-|-7-7-----7-7-----|
E|-----------------|-8-8-------8-8------|-------------7---|-----------------|


[Outro] (repeat until the end)

G|-----------------|-----------------|-----------------|-----------------| 
D|-----------------|-----------------|-----------------|-----------------|
A|-7-7-7-7-7-7-7-7-|-7-7-7-7-7-7-7-7-|-7-7-7-7-7-7-7-7-|-7-7-7-7-7-7-7-7-|
E|-----------------|-----------------|-----------------|-----------------|



****************************

in regular sequence!

****************************
Suggest correction
Give kudos to tab author, rate the tab!
1 2 3 4 5
comments
print report bad tab
guest
You may want to rate the tab now too:
select rating
Wanna post a correction for this tab? Suggest correction