Oops, an error
Loading. Please wait.

Shake The Disease Bass Tab

version 1
version 1

Whole song

Interactive

106 views 3 this week
no commentswrite comment
1 2 3 4 5
3 more votes to show rating
add to favorites
launch autoscroll
font size
0
reset
guitar tuner
Autoscroll
slow
fast
+/-
esc
set tempo
stop
Help us to improve Ultimate-Guitar.com Take our survey!
×
Author
Difficulty
novice
[Intro]

G|----------------|----------------|-------------------|-------------------|
D|----------------|----------------|-------------------|-------------------|
A|--------r-------|--------r-------|--4-4-4-4-4-4-4-4--|-------------------|
E|----------------|----------------|-------------------|--6-6-6-6-6-6-6-6--|


G|-------------------|-------------------|-------------------|-------------------|
D|-------------------|-------------------|-------------------|-------------------|
A|--5-5-5-5-5-5-5-5--|--5-5-5-5-5-5-5-5--|--4-4-4-4-4-4-4-4--|-------------------|
E|-------------------|-------------------|-------------------|--6-6-6-6-6-6-6-6--|


G|-------------------|-------------------|-------------------|-------------------|
D|-------------------|-------------------|-------------------|-------------------|
A|--5-5-5-5-5-5-5-5--|--5-5-5-5-5-5-5-5--|--5-5-5-5-5-5-5-5--|--5-5-5-5-5-5-5-5--|
E|-------------------|-------------------|-------------------|-------------------|


[Verse 1]

G|-----------------|-------------------|-------------------|---------------------|
D|-----------------|-------------------|-------------------|---------------------|
A|--5-5-5----------|--8-8-8-8----------|--5-5-5-5-5-5-5-5--|--5-5-5-5-5-5-5-5-5--|
E|--------8-8-8-8--|----------6-6-6-6--|-------------------|---------------------|


G|-----------------|-------------------|-------------------|---------------------|
D|-----------------|-------------------|-------------------|---------------------|
A|--5-5-5----------|--8-8-8-8----------|--5-5-5-5-5-5-5-5--|--5-5-5-5-5-5-5-5-5--|
E|--------8-8-8-8--|----------6-6-6-6--|-------------------|---------------------|


G|-------------------|-------------------|-------------------|-------------------|
D|-------------------|-------------------|-------------------|-------------------|
A|--8-8-8-8-8-8-8-8--|-------------------|--8-8-8-8-8-8-8-8--|-------------------|
E|-------------------|--8-8-8-8-8-8-8-8--|-------------------|--8-8-8-8-8-8-8-8--|


G|-------------------|-------------------|-------------------|---------------|
D|-------------------|-------------------|-------------------|---------------|
A|-------------------|-------------------|-------------------|---------------|
E|--6-6-6-6-6-6-6-6--|--6-6-6-6-6-6-6-6--|--6-6-6-6-6-6-6-6--|--6-6-6-6-6-6--|


[Chorus]

G|-------------------|-------------------|-------------------|-------------------|
D|-------------------|-------------------|-------------------|-------------------|
A|--5-5-5-5-5-5-5-5--|--8-8-8-8-8-8-8-8--|-------------------|-------------------|
E|-------------------|-------------------|--9-9-9-9-9-9-9-9--|--6-6-6-6-6-6-6-6--|


G|-------------------|-------------------|-------------------|-------------------|
D|-------------------|-------------------|-------------------|-------------------|
A|--5-5-5-5-5-5-5-5--|--8-8-8-8-8-8-8-8--|-------------------|-------------------|
E|-------------------|-------------------|--9-9-9-9-9-9-9-9--|--6-6-6-6-6-6-6-6--|


G|-------------------|
D|-------------------|
A|-------------------|
E|--6-6-6-6-6-6-6-6--|


[Bridge]

G|-----------------------------|-----------------------------|
D|-------------3-3-------------|-------------3-3-------------|
A|--5-5-5-3-3------------------|--5-5-5-3-3------------------|
E|------------------3-3-3-3-3--|------------------3-3-3-3-3--|


G|-----------------------------|-----------------------------|
D|-------------3-3-------------|-------------3-3-------------|
A|--5-5-5-3-3------------------|--5-5-5-3-3------------------|
E|------------------3-3-3-3-3--|------------------3-3-3-3-3--|


G|-------------------|-------------------|-------------------|-------------------|
D|-------------------|-------------------|-------------------|-------------------|
A|-------------------|-------------------|-------------------|-------------------|
E|--6-6-6-6-6-6-6-6--|--6-6-6-6-6-6-6-6--|--8-8-8-8-8-8-8-8--|--8-8-8-8-8-8-8-8--|


G|-------------------|-------------------|-------------------|---------------|
D|-------------------|-------------------|-------------------|---------------|
A|--5-5-5-5-5-5-5-5--|--5-5-5-5-5-5-5-5--|--5-5-5-5-5-5-5-5--|--5------------|
E|-------------------|-------------------|-------------------|----3-3-3-3-3--|


[Verse 2]

G|-----------------|-------------------|-------------------|---------------------|
D|-----------------|-------------------|-------------------|---------------------|
A|--5-5-5----------|--8-8-8-8----------|--5-5-5-5-5-5-5-5--|--5-5-5-5-5-5-5-5-5--|
E|--------8-8-8-8--|----------6-6-6-6--|-------------------|---------------------|


G|-----------------|-------------------|-------------------|---------------------|
D|-----------------|-------------------|-------------------|---------------------|
A|--5-5-5----------|--8-8-8-8----------|--5-5-5-5-5-5-5-5--|--5-5-5-5-5-5-5-5-5--|
E|--------8-8-8-8--|----------6-6-6-6--|-------------------|---------------------|


G|-------------------|-------------------|-------------------|-------------------|
D|-------------------|-------------------|-------------------|-------------------|
A|--8-8-8-8-8-8-8-8--|-------------------|--8-8-8-8-8-8-8-8--|-------------------|
E|-------------------|--8-8-8-8-8-8-8-8--|-------------------|--8-8-8-8-8-8-8-8--|


G|-------------------|-------------------|-------------------|---------------|
D|-------------------|-------------------|-------------------|---------------|
A|-------------------|-------------------|-------------------|---------------|
E|--6-6-6-6-6-6-6-6--|--6-6-6-6-6-6-6-6--|--6-6-6-6-6-6-6-6--|--6-6-6-6-6-6--|


[Chorus]

G|-------------------|-------------------|-------------------|-------------------|
D|-------------------|-------------------|-------------------|-------------------|
A|--5-5-5-5-5-5-5-5--|--8-8-8-8-8-8-8-8--|-------------------|-------------------|
E|-------------------|-------------------|--9-9-9-9-9-9-9-9--|--6-6-6-6-6-6-6-6--|


G|-------------------|-------------------|-------------------|-------------------|
D|-------------------|-------------------|-------------------|-------------------|
A|--5-5-5-5-5-5-5-5--|--8-8-8-8-8-8-8-8--|-------------------|-------------------|
E|-------------------|-------------------|--9-9-9-9-9-9-9-9--|--6-6-6-6-6-6-6-6--|


G|-------------------|
D|-------------------|
A|-------------------|
E|--6-6-6-6-6-6-6-6--|


[Bridge]

G|-----------------------------|-----------------------------|
D|-------------3-3-------------|-------------3-3-------------|
A|--5-5-5-3-3------------------|--5-5-5-3-3------------------|
E|------------------3-3-3-3-3--|------------------3-3-3-3-3--|


G|-----------------------------|-----------------------------|
D|-------------3-3-------------|-------------3-3-------------|
A|--5-5-5-3-3------------------|--5-5-5-3-3------------------|
E|------------------3-3-3-3-3--|------------------3-3-3-3-3--|


G|-------------------|-------------------|-------------------|-------------------|
D|-------------------|-------------------|-------------------|-------------------|
A|-------------------|-------------------|-------------------|-------------------|
E|--6-6-6-6-6-6-6-6--|--6-6-6-6-6-6-6-6--|--8-8-8-8-8-8-8-8--|--8-8-8-8-8-8-8-8--|


[Instrumental]

G|-----------------|-------------------|-------------------|---------------------|
D|-----------------|-------------------|-------------------|---------------------|
A|--5-5-5----------|--8-8-8-8----------|--5-5-5-5-5-5-5-5--|--5-5-5-5-5-5-5-5-5--|
E|--------8-8-8-8--|----------6-6-6-6--|-------------------|---------------------|


G|-----------------|-------------------|-------------------|---------------------|
D|-----------------|-------------------|-------------------|---------------------|
A|--5-5-5----------|--8-8-8-8----------|--5-5-5-5-5-5-5-5--|--5-5-5-5-5-5-5-5-5--|
E|--------8-8-8-8--|----------6-6-6-6--|-------------------|---------------------|


G|-----------------|----------------|-----------------|-----------------|
D|-----------------|----------------|-----------------|-----------------|
A|--4-/5-----------|--7-/8----------|--3-/4-----------|-----------------|
E|-----------------|----------------|-----------------|--5-/6-----------|


[Chorus]

G|-------------------|-------------------|-------------------|-------------------|
D|-------------------|-------------------|-------------------|-------------------|
A|--5-5-5-5-5-5-5-5--|--8-8-8-8-8-8-8-8--|-------------------|-------------------|
E|-------------------|-------------------|--9-9-9-9-9-9-9-9--|--6-6-6-6-6-6-6-6--|


G|-------------------|-------------------|-------------------|-------------------|
D|-------------------|-------------------|-------------------|-------------------|
A|--5-5-5-5-5-5-5-5--|--8-8-8-8-8-8-8-8--|-------------------|-------------------|
E|-------------------|-------------------|--9-9-9-9-9-9-9-9--|--6-6-6-6-6-6-6-6--|


[Chorus]

G|-------------------|-------------------|-------------------|-------------------|
D|-------------------|-------------------|-------------------|-------------------|
A|--5-5-5-5-5-5-5-5--|--8-8-8-8-8-8-8-8--|-------------------|-------------------|
E|-------------------|-------------------|--9-9-9-9-9-9-9-9--|--6-6-6-6-6-6-6-6--|


G|-------------------|-------------------|-------------------|-------------------|
D|-------------------|-------------------|-------------------|-------------------|
A|--5-5-5-5-5-5-5-5--|--8-8-8-8-8-8-8-8--|-------------------|-------------------|
E|-------------------|-------------------|--9-9-9-9-9-9-9-9--|--6-6-6-6-6-6-6-6--|


G|-----------------|----------------|-----------------|-----------------|
D|-----------------|----------------|-----------------|-----------------|
A|--4-/5-----------|--7-/8----------|--3-/4-----------|-----------------|
E|-----------------|----------------|-----------------|--5-/6-----------|


G|-----------------|----------------|-----------------|----------------------|
D|-----------------|----------------|-----------------|----------------------|
A|--4-/5-----------|--7-/8----------|--3-/4-----------|----------------------|
E|-----------------|----------------|-----------------|--5-/6-6-6-6-6-6-6-6--|


G|-------------------|-------------------|-------------------|-------------------|
D|-------------------|-------------------|-------------------|-------------------|
A|--5-5-5-5-5-5-5-5--|--8-8-8-8-8-8-8-8--|-------------------|-------------------|
E|-------------------|-------------------|--9-9-9-9-9-9-9-9--|--6-6-6-6-6-6-6-6--|


G|-------------------|-------------------|-------------------|-------------------|
D|-------------------|-------------------|-------------------|-------------------|
A|--5-5-5-5-5-5-5-5--|--8-8-8-8-8-8-8-8--|-------------------|-------------------|
E|-------------------|-------------------|--9-9-9-9-9-9-9-9--|--6-6-6-6-6-6-6-6--|


G|-------------------|-------------------|-------------------|-------------------|
D|-------------------|-------------------|-------------------|-------------------|
A|--5-5-5-5-5-5-5-5--|--8-8-8-8-8-8-8-8--|-------------------|-------------------|
E|-------------------|-------------------|--9-9-9-9-9-9-9-9--|--6-6-6-6-6-6-6-6--|


[Outro]
                                                                      (fade out)
G|-------------------|-------------------|-------------------|-------------------|
D|-------------------|-------------------|-------------------|-------------------|
A|--5-5-5-5-5-5-5-5--|--8-8-8-8-8-8-8-8--|-------------------|-------------------|
E|-------------------|-------------------|--9-9-9-9-9-9-9-9--|--6-6-6-6-6-6-6-6--|



*******************

| /   slide up
| r   rest

*******************

in regular sequence!
Suggest correction
Give kudos to tab author, rate the tab!
1 2 3 4 5
comments
print report bad tab
guest
You may want to rate the tab now too:
select rating
Wanna post a correction for this tab? Suggest correction