Oops, an error
Loading. Please wait.

Stories Of Old Bass Tab

22 views 1 this week
no commentswrite comment
1 2 3 4 5
3 more votes to show rating
add to favorites
launch autoscroll
font size
0
reset
guitar tuner
Autoscroll
slow
fast
+/-
esc
set tempo
stop
Help us to improve Ultimate-Guitar.com Take our survey!
×
Author
Difficulty
novice
Bass Start - 00:23


[Verse 1]

G|----------------|----------------|----------------|----------------| (x2)
D|----------------|--4-4-4-4-------|----------------|----------------|
A|--4-4-4-4-------|----------------|----------------|----------------|
E|----------------|----------------|--4-4-4-4-------|----------------|


G|----------------|----------------|----------------|----------------|
D|----------------|--4--2----------|----------------|----------------|
A|--4-4-4-4-------|---------4------|--6-6-6-6-------|----------------|
E|----------------|----------------|----------------|--4-4-4-4-------|


[Chorus]

G|----------------|---------------|
D|----------------|-4-4--4-2-2--2-|
A|--4-4--4--------|---------------|
E|---------5-5--5-|---------------|


G|---------------|---------------|---------------|---------------| (x2)
D|--------2-2--2-|---------------|--------2-2--2-|---------------|
A|-4-4--4--------|-0-0--0-2-2--2-|-4-4--4--------|-0-0--0-2-2--2-|
E|---------------|---------------|---------------|---------------|


[Verse 2]

G|----------------|----------------|----------------|----------------| (x2)
D|----------------|--4-4-4-4-------|----------------|----------------|
A|--4-4-4-4-------|----------------|----------------|----------------|
E|----------------|----------------|--4-4-4-4-------|-----------4--4-|


G|----------------|----------------|----------------|----------------|
D|----------------|--4--2----------|----------------|----------------|
A|--4-4-4-4-------|---------4------|--6-6-6-6-------|----------------|
E|----------------|----------------|----------------|--4-4-4-4-------|


[Chorus]

G|----------------|---------------|
D|----------------|-4-4--4-2-2--2-|
A|--4-4--4--------|---------------|
E|---------5-5--5-|---------------|


G|---------------|---------------|---------------|-----------| 
D|--------2-2--2-|---------------|--------2-2--2-|-----------|
A|-4-4--4--------|-0-0--0-2-2--2-|-4-4--4--------|-0--2---4--|
E|---------------|---------------|---------------|-----------|


[Bridge]

G|----------------|-1-1--1-1-1--1-|---------------|-4-4--4-2-2--2-|
D|--4-4--4-4-4--4-|---------------|-2-2--2-2-2--2-|---------------|
A|----------------|---------------|---------------|---------------|
E|----------------|---------------|---------------|---------------|


G|---------------|-1-1--1-1-1--1-|---------------|-4-4-4-4-4-4-4-4-|
D|-4-4--4-4-4--4-|---------------|-2-2--2-2-2--2-|-----------------|
A|---------------|---------------|---------------|-----------------|
E|---------------|---------------|---------------|-----------------|


G|-2-2-2-2-2-2-2-2-|-2-2-2-2-2-2-2-2-|
D|-----------------|-----------------|
A|-----------------|-----------------|
E|-----------------|-----------------|


[Verse 3]

G|-----------------|-----------------|----------------|----------------| (x2)
D|-----------------|-4-4-4-4-4-4-4-4-|-6-6-6-6--------|----------------|
A|-4-4-4-4-4-4-4-4-|-----------------|----------------|----------------|
E|-----------------|-----------------|----------------|-----------4--4-|


G|-----------------|---------------|-----------------|---------------|
D|-----------------|-4--2----------|-----------------|---------------|
A|-4-4-4-4-4-4-4-4-|--------4------|-6-6-6-6-6-6-6-6-|---------------|
E|-----------------|---------------|-----------------|-4-4-4-4-------|


[Chorus, Outro]

G|------------------|---------------|
D|------------------|-4-4--4-2-2--2-|
A|--4-4-4-4---------|---------------|
E|----------5-5-5-5-|---------------|


G|---------------|-2-2--2-4-4--4-|---------------|-2-2--2-4-4--4-| (x4)
D|--------2-2--2-|---------------|--------2-2--2-|---------------|
A|-4-4--4--------|---------------|-4-4--4--------|---------------|
E|---------------|---------------|---------------|---------------|


G|----------------|
D|----------------|
A|----------------|
E|----------------|



*****************************

in regular sequence!

*****************************
Suggest correction
Give kudos to tab author, rate the tab!
1 2 3 4 5
comments
print report bad tab
guest
You may want to rate the tab now too:
select rating
Wanna post a correction for this tab? Suggest correction