Oops, an error
Loading. Please wait.

The Meaning Of Love Bass Tab

16 views 1 this week
no commentswrite comment
1 2 3 4 5
3 more votes to show rating
add to favorites
launch autoscroll
font size
0
reset
guitar tuner
Autoscroll
slow
fast
+/-
esc
set tempo
stop
Help us to improve Ultimate-Guitar.com Take our survey!
×
Author
Difficulty
novice
[Intro]

G|--5----5--|--5----5--|--5--5--5--5--|----5---5-5-5-5-5-|
D|----------|----------|--------------|------------------|
A|----------|----------|--------------|--3---3-----------|
E|----------|----------|--------------|------------------|


G|-2-2-2-2---------|---------5-5-5-5-|-2-2-2-2---------|---------5-5-5-5-| (x2)
D|---------3-3-3-3-|-5-5-5-5---------|---------3-3-3-3-|-5-5-5-5---------|
A|-----------------|-----------------|-----------------|-----------------|
E|-----------------|-----------------|-----------------|-----------------|


[Verse 1]

G|-2-2-2-2---------|---------5-5-5-5-|-2-2-2-2---------|---------5-5-5-5-| 
D|---------3-3-3-3-|-5-5-5-5---------|---------3-3-3-3-|-5-5-5-5---------|
A|-----------------|-----------------|-----------------|-----------------|
E|-----------------|-----------------|-----------------|-----------------|


G|-2-2-2-2---------|---------5-5-5-5-|
D|---------3-3-3-3-|-5-5-5-5---------|
A|-----------------|-----------------|
E|-----------------|-----------------|


[Chorus]

G|-7-7-7-7---------|-----------------|-7-7-7-7---------|-----------------|
D|---------5-5-5-5-|-3-3-3-3-5-5-5-5-|---------5-5-5-5-|-3-3-3-3-5-5-5-5-|
A|-----------------|-----------------|-----------------|-----------------|
E|-----------------|-----------------|-----------------|-----------------|


G|-5-5-5-5-9-9-9-9-|-8-8-8-8-0-0-0-0-|-5-5-5-5-9-9-9-9-|-8-8-8-8-0-0-0-0-|
D|-----------------|-----------------|-----------------|-----------------|
A|-----------------|-----------------|-----------------|-----------------|
E|-----------------|-----------------|-----------------|-----------------|


[Interlude]

G|-2-2-2-2---------|---------5-5-5-5-|-2-2-2-2---------|---------5-5-5-5-| 
D|---------3-3-3-3-|-5-5-5-5---------|---------3-3-3-3-|-5-5-5-5---------|
A|-----------------|-----------------|-----------------|-----------------|
E|-----------------|-----------------|-----------------|-----------------|


[Verse 2]

G|-2-2-2-2---------|---------5-5-5-5-|-2-2-2-2---------|---------5-5-5-5-| 
D|---------3-3-3-3-|-5-5-5-5---------|---------3-3-3-3-|-5-5-5-5---------|
A|-----------------|-----------------|-----------------|-----------------|
E|-----------------|-----------------|-----------------|-----------------|


G|-2-2-2-2---------|---------5-5-5-5-|
D|---------3-3-3-3-|-5-5-5-5---------|
A|-----------------|-----------------|
E|-----------------|-----------------|


[Chorus]

G|-7-7-7-7---------|-----------------|-7-7-7-7---------|-----------------|
D|---------5-5-5-5-|-3-3-3-3-5-5-5-5-|---------5-5-5-5-|-3-3-3-3-5-5-5-5-|
A|-----------------|-----------------|-----------------|-----------------|
E|-----------------|-----------------|-----------------|-----------------|


G|-5-5-5-5-9-9-9-9-|-8-8-8-8-0-0-0-0-|-5-5-5-5-9-9-9-9-|-8-8-8-8-0-0-0-0-|
D|-----------------|-----------------|-----------------|-----------------|
A|-----------------|-----------------|-----------------|-----------------|
E|-----------------|-----------------|-----------------|-----------------|


[Bridge]

G|-5-5-5-5-5-5-5-5-|-----------------|-----------------|-----------------|
D|-----------------|-6-6-6-6-6-6-6-6-|-4-4-4-4-4-4-4-4-|-3-3-3-3-3-3-3-3-|
A|-----------------|-----------------|-----------------|-----------------|
E|-----------------|-----------------|-----------------|-----------------|


G|-5-5-5-5-5-5-5-5-|-----------------|-----------------|
D|-----------------|-6-6-6-6-6-6-6-6-|-4-4-4-4-4-4-4-4-|
A|-----------------|-----------------|-----------------|
E|-----------------|-----------------|-----------------|


G|----------|----------|--------------|------------------|
D|----------|----------|--------------|------------------|
A|--3----3--|--3----3--|--3--3--3--3--|--3-3-3-3-3-3-3-3-|
E|----------|----------|--------------|------------------|


[Interlude]

G|-----------------|-----------------|-----------------|-----------------| (x2)
D|-----------------|---------3-3-3-3-|-----------------|---------3-3-3-3-|
A|-5-5-5-5---------|-3-3-3-3---------|-5-5-5-5---------|-3-3-3-3---------|
E|---------6-6-6-6-|-----------------|---------6-6-6-6-|-----------------|


[Verse 3]

G|-----------------|-----------------|-----------------|-----------------| 
D|-----------------|---------3-3-3-3-|-----------------|---------3-3-3-3-|
A|-5-5-5-5---------|-3-3-3-3---------|-5-5-5-5---------|-3-3-3-3---------|
E|---------6-6-6-6-|-----------------|---------6-6-6-6-|-----------------|


G|-----------------|-----------------|
D|-----------------|---------3-3-3-3-|
A|-5-5-5-5---------|-3-3-3-3---------|
E|---------6-6-6-6-|-----------------|


[Chorus]

G|-----------------|-----------------|-----------------|-----------------|
D|-5-5-5-5---------|-----------------|-5-5-5-5---------|-----------------|
A|---------3-3-3-3-|---------3-3-3-3-|---------3-3-3-3-|---------3-3-3-3-|
E|-----------------|-6-6-6-6---------|-----------------|-6-6-6-6---------|


G|---------2-2-2-2-|-1-1-1-1---------|---------2-2-2-2-|-1-1-1-1---------|
D|-3-3-3-3---------|-----------------|-3-3-3-3---------|-----------------|
A|-----------------|---------3-3-3-3-|-----------------|---------3-3-3-3-|
E|-----------------|-----------------|-----------------|-----------------|


G|---------2-2-2-2-|-1-1-1-1---------|---------2-2-2-2-|-1-1-1-1-|
D|-3-3-3-3---------|-----------------|-3-3-3-3---------|---------|
A|-----------------|---------3-3-3-3-|-----------------|---------|
E|-----------------|-----------------|-----------------|---------|


[Bridge]

G|-----------------|-----------------|-----------------|-----------------|
D|-----------------|-----------------|-----------------|-----------------|
A|-4-4-4-4-4-4-4-4-|-0-0-0-0-0-0-0-0-|-----------------|-----------------|
E|-----------------|-----------------|-3-3-3-3-3-3-3-3-|-2-2-2-2-2-2-2-2-|


G|-----------------|-----------------|-----------------|
D|-----------------|-----------------|-----------------|
A|-4-4-4-4-4-4-4-4-|-0-0-0-0-0-0-0-0-|-----------------|
E|-----------------|-----------------|-3-3-3-3-3-3-3-3-|


G|---------|----------|--------------|------------------|
D|---------|----------|--------------|------------------|
A|-4----4--|--4----4--|--4--4--4--4--|--4-4-4-4-4-4-4-4-|
E|---------|----------|--------------|------------------|


[Interlude]

G|-----------------|-----------------|-----------------|-----------------|
D|-----------------|-----------------|-----------------|-----------------|
A|-1-1-1-1---------|---------4-4-4-4-|-1-1-1-1---------|---------4-4-4-4-|
E|---------2-2-2-2-|-4-4-4-4---------|---------2-2-2-2-|-4-4-4-4---------|


[Outro] (repeat until the end)

G|---------3-3-3-3-|-2-2-2-2---------|---------3-3-3-3-|-2-2-2-2---------|
D|-4-4-4-4---------|-----------------|-4-4-4-4---------|-----------------|
A|-----------------|---------4-4-4-4-|-----------------|---------4-4-4-4-|
E|-----------------|-----------------|-----------------|-----------------|



*************************

in regular sequence!

*************************
Suggest correction
Give kudos to tab author, rate the tab!
1 2 3 4 5
comments
print report bad tab
guest
You may want to rate the tab now too:
select rating
Wanna post a correction for this tab? Suggest correction