Oops, an error
Loading. Please wait.

The Sun And The Rainfall Bass Tab

37 views 1 this week
no commentswrite comment
1 2 3 4 5
3 more votes to show rating
add to favorites
launch autoscroll
font size
0
reset
guitar tuner
Autoscroll
slow
fast
+/-
esc
set tempo
stop
Help us to improve Ultimate-Guitar.com Take our survey!
×
Author
Difficulty
novice
[Intro]

G|----------------|----------------|----------------|----------------|
D|----------------|----------------|----------------|----------------|
A|--------r-------|--------r-------|--------r-------|--------r-------|
E|----------------|----------------|----------------|----------------|


G|----------------|----------------|----------------|----------------|
D|----------------|----------------|----------------|----------------|
A|--------r-------|--------r-------|--------r-------|--------r-------|
E|----------------|----------------|----------------|----------------|


G|-------------------|-------------------|-------------------|-------------------|
D|-------------------|-------------------|-------------------|-------------------|
A|--7-7-7-7----------|--7-7-7-7----------|--7-7-7-7----------|--7-7-7-7----------|
E|----------0-0-0-0--|----------0-0-0-0--|----------0-0-0-0--|----------0-0-0-0--|


G|-------------------|-------------------|-------------------|-------------------|
D|-------------------|-------------------|-------------------|-------------------|
A|--7-7-7-7----------|--7-7-7-7----------|--7-7-7-7----------|--7-7-7-7-7-7-7-7--|
E|----------0-0-0-0--|----------0-0-0-0--|----------0-0-0-0--|-------------------|


G|-------------------|-------------------|-------------------|--5-5-5-5-5-5-5-5--|
D|-------------------|--5-5-5-5-5-5-5-5--|--7-7-7-7-7-7-7-7--|-------------------|
A|--7-7-7-7-7-7-7-7--|-------------------|-------------------|-------------------|
E|-------------------|-------------------|-------------------|-------------------|


G|-------------------|-------------------|-------------------|--5-5-5-5-5-5-5-5--|
D|-------------------|--5-5-5-5-5-5-5-5--|--7-7-7-7-7-7-7-7--|-------------------|
A|--7-7-7-7-7-7-7-7--|-------------------|-------------------|-------------------|
E|-------------------|-------------------|-------------------|-------------------|


G|--5-5-5-5-5-5-5-5--|
D|-------------------|
A|-------------------|
E|-------------------|


[Verse 1]

G|-------------------|-------------------|-------------------|--5-5-5-5-5-5-5-5--|
D|-------------------|--5-5-5-5-5-5-5-5--|--7-7-7-7-7-7-7-7--|-------------------|
A|--7-7-7-7-7-7-7-7--|-------------------|-------------------|-------------------|
E|-------------------|-------------------|-------------------|-------------------|


G|-------------------|-------------------|-------------------|--5-5-5-5-5-5-5-5--|
D|-------------------|--5-5-5-5-5-5-5-5--|--7-7-7-7-7-7-7-7--|-------------------|
A|--7-7-7-7-7-7-7-7--|-------------------|-------------------|-------------------|
E|-------------------|-------------------|-------------------|-------------------|


G|--5-5-5-5-5-5-5-5--|--5-5-5-5-5-5-5-5--|--5-5-------------|
D|-------------------|-------------------|------------------|
A|-------------------|-------------------|------------------|
E|-------------------|-------------------|------------------|


[Chorus]

G|-------------------|--4-4-4-4-4-4-4-4--|-------------------|-------------------|
D|--5-5-5-5-5-5-5-5--|-------------------|--5-5-5-5-5-5-5-5--|-------------------|
A|-------------------|-------------------|-------------------|--7-7-7-7-7-7-7-7--|
E|-------------------|-------------------|-------------------|-------------------|


G|-------------------|-------------------|-------------------|-------------------|
D|-------------------|--7-7-7-7-7-7-7-7--|-------------------|-------------------|
A|-------------------|-------------------|--7-7-7-7-7-7-7-7--|-------------------|
E|--8-8-8-8-8-8-8-8--|-------------------|-------------------|--8-8-8-8-8-8-8-8--|


G|-------------------|-------------------|
D|-------------------|-------------------|
A|--7-7-7-7-7-7-7-7--|-------------------|
E|-------------------|--8-8-8-8-8-8-8-8--|


[Bridge]

G|-------------------|-------------------|-------------------|--5-5-5-5-5-5-5-5--|
D|-------------------|--5-5-5-5-5-5-5-5--|--7-7-7-7-7-7-7-7--|-------------------|
A|--7-7-7-7-7-7-7-7--|-------------------|-------------------|-------------------|
E|-------------------|-------------------|-------------------|-------------------|


G|-------------------|-------------------|-------------------|--5-5-5-5-5-5-5-5--|
D|-------------------|--5-5-5-5-5-5-5-5--|--7-7-7-7-7-7-7-7--|-------------------|
A|--7-7-7-7-7-7-7-7--|-------------------|-------------------|-------------------|
E|-------------------|-------------------|-------------------|-------------------|


[Verse 2]

G|-------------------|-------------------|-------------------|--5-5-5-5-5-5-5-5--|
D|-------------------|--5-5-5-5-5-5-5-5--|--7-7-7-7-7-7-7-7--|-------------------|
A|--7-7-7-7-7-7-7-7--|-------------------|-------------------|-------------------|
E|-------------------|-------------------|-------------------|-------------------|


G|-------------------|-------------------|-------------------|--5-5-5-5-5-5-5-5--|
D|-------------------|--5-5-5-5-5-5-5-5--|--7-7-7-7-7-7-7-7--|-------------------|
A|--7-7-7-7-7-7-7-7--|-------------------|-------------------|-------------------|
E|-------------------|-------------------|-------------------|-------------------|


G|--5-5-5-5-5-5-5-5--|--5-5-5-5-5-5-5-5--|--5-5-5-5-5-5-5-5--|--5-5-5-5-5-5-5-5--|
D|-------------------|-------------------|-------------------|-------------------|
A|-------------------|-------------------|-------------------|-------------------|
E|-------------------|-------------------|-------------------|-------------------|


G|--5-5-----------|
D|----------------|
A|----------------|
E|----------------|


[Chorus]

G|-------------------|--4-4-4-4-4-4-4-4--|-------------------|-------------------|
D|--5-5-5-5-5-5-5-5--|-------------------|--5-5-5-5-5-5-5-5--|-------------------|
A|-------------------|-------------------|-------------------|--7-7-7-7-7-7-7-7--|
E|-------------------|-------------------|-------------------|-------------------|


G|-------------------|-------------------|-------------------|-------------------|
D|-------------------|--7-7-7-7-7-7-7-7--|-------------------|-------------------|
A|-------------------|-------------------|--7-7-7-7-7-7-7-7--|-------------------|
E|--8-8-8-8-8-8-8-8--|-------------------|-------------------|--8-8-8-8-8-8-8-8--|


G|-------------------|-------------------|
D|-------------------|-------------------|
A|--7-7-7-7-7-7-7-7--|-------------------|
E|-------------------|--8-8-8-8-8-8-8-8--|


[Bridge] (repeat until the end)

G|-------------------|-------------------|-------------------|--5-5-5-5-5-5-5-5--|
D|-------------------|--5-5-5-5-5-5-5-5--|--7-7-7-7-7-7-7-7--|-------------------|
A|--7-7-7-7-7-7-7-7--|-------------------|-------------------|-------------------|
E|-------------------|-------------------|-------------------|-------------------|



******************

| r : rest

******************

in regular sequence!
Suggest correction
Give kudos to tab author, rate the tab!
1 2 3 4 5
comments
print report bad tab
guest
You may want to rate the tab now too:
select rating
Wanna post a correction for this tab? Suggest correction