Oops, an error
Loading. Please wait.

The Worst Crime chords

790 views 24 this week
1 commentread comment
1 2 3 4 5
2 more votes to show rating
add to favorites
×
Save as Personal and add changes to this tab that will be seen only by you. Learn more ›
×
You can save this tab as Personal to edit and correct it or add notes. All changes will be seen only by you. Learn more »
launch autoscroll
font size
0
reset
transpose
0
reset
simplify chords
display chords
guitar tuner
edit
Autoscroll
slow
fast
+/-
esc
set tempo
stop
Author
Difficulty
About this tab version
Includes chords, fingerings and guitar melodies. Was this info helpful? Yes No
Strumming Is this strumming pattern correct? Yes No
Whole Song 90 bpm
1
&
2
&
3
&
4
Listen
Depeche Mode
"The Worst Crime"

Standard Tuning.

   Am    G     F     Dm    E/G#  Am7   Amadd9 F6add#11 <-Bass plays root            
e|-------------------------------------5------5------|
B|-5-----3-----1-----------5-----1-----0------0------|
G|-5-----4-----2-----2-----4-----0-----5------7------|
D|-7-----5-----3-----3-----6----(2)----7------7------|
A|-------------------5-----------0-------------------|
E|(5)---(3)---(1)------------------------------------|

[Intro]
  Am
e|----5---|
B|------0-|
G|--5-----|
D|7-------|
A|--------|
E|--------|

[Verse]
  Am      G       F       Dm      Am      G       F       Dm
e|----5-----------------5-------------5-----------------5---------|
B|------0-----------0-------------------0-----------0-------------|
G|--5-----------------7-------------5-----------------7-----------|
D|7---------------7---------------7---------------7---------------|
A|----------------------------------------------------------------|
E|----------------------------------------------------------------|

  F       G       E/G#    Am  G   F       G       E/G#    Am  G
e|------------------------5-------------------------------5-------|
B|5-------------------5-----5-----5-------------------5-----5-----|
G|----7---7---5---4-----------5-------7---7---5---4-----------5---|
D|----------------------------------------------------------------|
A|----------------------------------------------------------------|
E|----------------------------------------------------------------|

Am                      G
  There's a lynching in the square
F                  Dm  
  You will have to join us
Am                    G
  Everyone's going to be there
F                  Dm
  We're setting up the truss
F                    G
  Once there were solutions
E/G#                Am  G
  Now we have no excuses
F                    G
  It got lost in confusion
E/G#                      Am   G
  So we're preparing the nooses

[Chorus]

e|--------|
B|1-------|
G|0h2-----|
D|--------|
A|0-------|
E|--------|

    Am7
And oh, we had so much time
Am7
How could we commit the worst crime?

[Verse]
Am              G          
  Blame misinformation, 
F           Dm 
  Misguided leaders
Am               G
  Apathetic hesitation, 
F            Dm 
  Uneducated readers
F              G            
  For whatever reasons 
E/G#                    Am     G
  We now find ourselves in this
F                         G
  We are all charged with treason
E/G#                      Am     G
  And there's no one left to hear

[Chorus]
    Am7
And oh, we had so much time
Am7
How could we commit the worst crime?

[Verse]
Am                        G
  We're the judge and the jury
F                  Dm
  The hangman, the convict
Am                  G
  It's too late for fury
F                    Dm
  Our indictment was hand-picked
F                    G      
  So step out to the gallows
E/G#              Am      G
  And accept your sentence
F              G
  For being so shallow
E/G#             Am     G
  You must pay a penance

[Chorus]
    Am7
And oh, we had so much time
Am7
How could we commit the worst crime?
    Am7
And oh, we had so much time
Am7
How could we commit the worst crime?



***********************************
| h   Hammer-on
| ()  Optional notes
***********************************
Suggest correction
Creating personal tab
Creating personal tab
You can edit any tab online and save it as your Personal.

You can edit, replace or remove any tab part or add personal notes – all changes will be seen only by you.

Personal tabs can be accessed anytime from any device, even offline.
Learn more »
Give kudos to tab author, rate the tab!
1 2 3 4 5
comments
print report bad tab
1 comment total.
0 reply
vankwishedsin 10 Apr 17, 2017 01:19 AM

I think there's much to the chorus...but all in all, not a nad start

guest
You may want to rate the tab now too:
select rating
Wanna post a correction for this tab? Suggest correction