Oops, an error
Loading. Please wait.

World In My Eyes Bass Tab

82 views 3 this week
no commentswrite comment
1 2 3 4 5
3 more votes to show rating
add to favorites
launch autoscroll
font size
0
reset
guitar tuner
Autoscroll
slow
fast
+/-
esc
set tempo
stop
Help us to improve Ultimate-Guitar.com Take our survey!
×
Author
Difficulty
novice
[Intro]

G|-----------------|------------6--|-----------------|------------6--|
D|--4--------------|---------------|--4--------------|---------------|
A|----6-4-6--4--6--|--4-7--4-6-----|----6-4-6--4--6--|--4-7--4-6-----|
E|-----------------|---------------|-----------------|---------------|


G|-----------------|------------6--|-----------------|------------6--|
D|--4--------------|---------------|--4--------------|---------------|
A|----6-4-6--4--6--|--4-7--4-6-----|----6-4-6--4--6--|--4-7--4-6-----|
E|-----------------|---------------|-----------------|---------------|


G|-----------------|------------6--|-----------------|------------6--|
D|--4--------------|---------------|--4--------------|---------------|
A|----6-4-6--4--6--|--4-7--4-6-----|----6-4-6--4--6--|--4-7--4-6-----|
E|-----------------|---------------|-----------------|---------------|


G|-----------------|------------6--|-----------------|------------6--|
D|--4--------------|---------------|--4--------------|---------------|
A|----6-4-6--4--6--|--4-7--4-6-----|----6-4-6--4--6--|--4-7--4-6-----|
E|-----------------|---------------|-----------------|---------------|


[Verse 1]

G|-----------------|------------6--|-----------------|------------6--|
D|--4--------------|---------------|--4--------------|---------------|
A|----6-4-6--4--6--|--4-7--4-6-----|----6-4-6--4--6--|--4-7--4-6-----|
E|-----------------|---------------|-----------------|---------------|


G|-----------------|------------6--|-----------------|------------6--|
D|--4--------------|---------------|--4--------------|---------------|
A|----6-4-6--4--6--|--4-7--4-6-----|----6-4-6--4--6--|--4-7--4-6-----|
E|-----------------|---------------|-----------------|---------------|


G|-----------------|---------------|--4--------------|---------------|
D|--4--------------|------------6--|----6-4-6--4--6--|--4-6--4-6-----|
A|----6-4-6--4--6--|--4-7--4-6-----|-----------------|------------6--|
E|-----------------|---------------|-----------------|---------------|


G|-----------------|------------6--|-----------------|------------6--|
D|--4--------------|---------------|--4--------------|---------------|
A|----6-4-6--4--6--|--4-7--4-6-----|----6-4-6--4--6--|--4-7--4-6-----|
E|-----------------|---------------|-----------------|---------------|


[Instrumental]

G|-----------------|------------6--|-----------------|------------6--|
D|--4--------------|---------------|--4--------------|---------------|
A|----6-4-6--4--6--|--4-7--4-6-----|----6-4-6--4--6--|--4-7--4-6-----|
E|-----------------|---------------|-----------------|---------------|


G|-----------------|------------6--|-----------------|------------6--|
D|--4--------------|---------------|--4--------------|---------------|
A|----6-4-6--4--6--|--4-7--4-6-----|----6-4-6--4--6--|--4-7--4-6-----|
E|-----------------|---------------|-----------------|---------------|


[Verse 2]

G|-----------------|------------6--|-----------------|------------6--|
D|--4--------------|---------------|--4--------------|---------------|
A|----6-4-6--4--6--|--4-7--4-6-----|----6-4-6--4--6--|--4-7--4-6-----|
E|-----------------|---------------|-----------------|---------------|


G|-----------------|------------6--|-----------------|------------6--|
D|--4--------------|---------------|--4--------------|---------------|
A|----6-4-6--4--6--|--4-7--4-6-----|----6-4-6--4--6--|--4-7--4-6-----|
E|-----------------|---------------|-----------------|---------------|


G|-----------------|---------------|--4--------------|---------------|
D|--4--------------|------------6--|----6-4-6--4--6--|--4-6--4-6-----|
A|----6-4-6--4--6--|--4-7--4-6-----|-----------------|------------6--|
E|-----------------|---------------|-----------------|---------------|


G|-----------------|------------6--|-----------------|---------------|
D|--4--------------|---------------|--4--------------|------------6--|
A|----6-4-6--4--6--|--4-7--4-6-----|----6-4-6--4--6--|--4-7--4-6-----|
E|-----------------|---------------|-----------------|---------------|


[Chorus]

G|--5-------------|--4-------------|----------------|----------------|
D|----------------|----------------|----------------|----------------|
A|----------------|----------------|----------------|----------------|
E|----------------|----------------|--4-------------|--6-------------|


G|----------------|----------------|----------------|
D|----------------|----------------|----------------|
A|--6-------------|----------------|----------------|
E|----------------|--4-------------|--6-6--6--6--6--|


[Instrumental]

G|-----------------|------------6--|-----------------|------------6--|
D|--4--------------|---------------|--4--------------|---------------|
A|----6-4-6--4--6--|--4-7--4-6-----|----6-4-6--4--6--|--4-7--4-6-----|
E|-----------------|---------------|-----------------|---------------|


G|-----------------|------------6--|-----------------|------------|
D|--4--------------|---------------|--4--------------|------------|
A|----6-4-6--4--6--|--4-7--4-6-----|----6-4-6--4--6--|--4-7--4-6--|
E|-----------------|---------------|-----------------|------------|


[Verse 3]

G|----------------|----------------|----------------|----------------|
D|----------------|----------------|----------------|----------------|
A|--------r-------|--------r-------|--------r-------|--------r-------|
E|----------------|----------------|----------------|----------------|


G|----------------|----------------|----------------|----------------|
D|----------------|----------------|----------------|----------------|
A|--------r-------|--------r-------|--------r-------|--------r-------|
E|----------------|----------------|----------------|----------------|


G|----------------|----------------|----------------|----------------|
D|----------------|----------------|--/6------------|----------------|
A|--6-------------|--------r-------|----------------|--------r-------|
E|----------------|----------------|----------------|----------------|


G|----------------|----------------|----------------|----------------|
D|----------------|----------------|--/9------------|----------------|
A|--6-------------|--------r-------|----------------|--------r-------|
E|----------------|----------------|----------------|----------------|


[Chorus]

G|--5-------------|--4-------------|----------------|----------------|
D|----------------|----------------|----------------|----------------|
A|----------------|----------------|----------------|----------------|
E|----------------|----------------|--4-------------|--6-------------|


G|----------------|----------------|----------------|
D|----------------|----------------|----------------|
A|--6-------------|----------------|----------------|
E|----------------|--4-------------|--6-6--6--6--6--|


[Instrumental]

G|-----------------|---------------|-----------------|------------8--|
D|--4--------------|------------6--|--4-6-4-6--4--6--|--4-6--4-6-----|
A|----6-4-6--4--6--|--4-7--4-6-----|-----------------|---------------|
E|-----------------|---------------|-----------------|---------------|


G|-----------------|---------------|-----------------|---------------|
D|--4--------------|------------6--|--4-6-4-6--4--6--|--4-6--4-6-----|
A|----6-4-6--4--6--|--4-7--4-6-----|-----------------|------------6--|
E|-----------------|---------------|-----------------|---------------|


[Outro] (repeat until the end)

G|-----------------|---------------|-----------------|---------------|
D|--4--------------|------------6--|--4-6-4-6--4--6--|--4-6--4-6-----|
A|----6-4-6--4--6--|--4-7--4-6-----|-----------------|------------6--|
E|-----------------|---------------|-----------------|---------------|



*******************

| / : slide up
| r : rest

*******************

in regular sequence!
Suggest correction
Give kudos to tab author, rate the tab!
1 2 3 4 5
comments
print report bad tab
guest
You may want to rate the tab now too:
select rating
Wanna post a correction for this tab? Suggest correction