Oops, an error
Loading. Please wait.

Wrong tab

version 2
version 2

Whole song

  • I have guitar arrangement for the synth on the son... Show more
499 views 6 this week
no commentswrite comment
1 2 3 4 5
2 more votes to show rating
add to favorites
×
Save as Personal and add changes to this tab that will be seen only by you. Learn more ›
×
You can save this tab as Personal to edit and correct it or add notes. All changes will be seen only by you. Learn more »
launch autoscroll
font size
0
reset
how to read this tab
guitar tuner
edit
Autoscroll
slow
fast
+/-
esc
set tempo
stop
Author
Difficulty
About this tab version
I have guitar arrangement for the synth on the song... And I think there's no other tab for this :v. Was this info helpful? Yes No
WRONG by DEPECHE MODE for two guitars. Tab by Naboory.

Chord Progression (PowerChords): E F# B G

[MAIN RIFF]

This repeats over an over again through the whole song...
PD: This is as well the bass tab for the whole song which repeats again and again...

E|-------------------------------------------------------------------------------------------------
B|-------------------------------------------------------------------------------------------------
G|-------------------------------------------------------------------------------------------------
D|-----2-----2-----2-----2-----2-----2-----2-----2-----4-----4-----4-----4----4-----4-----4-----4--
A|-------------------------------------------------------------------------------------------------
E|--0-----0-----0-----0-----0-----0-----0-----0-----2-----2-----2-----2-----2-----2-----2-----2----


E|-------------------------------------------------------------------------------------------------
B|-------------------------------------------------------------------------------------------------
G|-----4-----4-----4-----4-----4-----4-----4-----4-------------------------------------------------
D|-----------------------------------------------------5-----5-----5-----5-----5-----5-----5-----5-
A|--2-----2-----2-----2-----2-----2-----2-----2----------------------------------------------------
E|--------------------------------------------------3-----3-----3-----3-----3-----3-----3-----3----


[Chorus]

Though the main riff continues the same even during the chorus, there's a Synth arragement that starts
playing here and continues to repeat through the whole song, but here you have the tab for a second
guitar...

                                                         
E|----------10-----------9-----------7-----------------------------------------9-------------10---------9--12-
B|-------8------------8-----------8-----------8--10-------------12---------10------------12-------------------
G|----------------------------------------------------------11------------------------------------------------
D|----9------------9-----------9-----------9------------11-------------11------------11-------------11--------
A|-7------------7-----------7-----------7------------9--------------9-------------9--------------9------------
E|------------------------------------------------------------------------------------------------------------
 

E|--------------18----------18------------------17----------16------
B|----------15------------------15----------15------------------15--
G|------------------------------------------------------------------
D|------16--------------16--------------16--------------16----------
A|--14--------------14--------------14--------------14--------------
E|------------------------------------------------------------------


E|--------------12--------------14--------------15----------12------
B|--------------------------------------------------------------12--
G|----------12--------------12--------------12----------------------
D|------12--------------12--------------12--------------12----------
A|--10--------------10--------------10--------------10--------------
E|------------------------------------------------------------------

IN THE MIDDLE OF THE SONG THERE'S A BREAK WHERE ONLY SYNTH PLAYS. THE ARRAGEMENT IS THE SAME THAN BEFORE, BUT 
ONLY PLAYS THE FIRST HALF...

E|----------10-----------9-----------7-----------------------------------------9-------------10---------9--12-
B|-------8------------8-----------8-----------8--10-------------12---------10------------12-------------------
G|----------------------------------------------------------11------------------------------------------------
D|----9------------9-----------9-----------9------------11-------------11------------11-------------11--------
A|-7------------7-----------7-----------7------------9--------------9-------------9--------------9------------
E|------------------------------------------------------------------------------------------------------------

 
And this is all the song, after this it repeats all over again. Take a few listens to fully understand song 
structure. Hope you enjoy...

            
            
Suggest correction
Creating personal tab
Creating personal tab
You can edit any tab online and save it as your Personal.

You can edit, replace or remove any tab part or add personal notes – all changes will be seen only by you.

Personal tabs can be accessed anytime from any device, even offline.
Learn more »
Give kudos to tab author, rate the tab!
1 2 3 4 5
comments
print report bad tab
guest
You may want to rate the tab now too:
select rating
Wanna post a correction for this tab? Suggest correction