Oops, an error
Loading. Please wait.

Die Lieder chords

67 views 3 this week
no commentswrite comment
1 2 3 4 5
1 last vote to show rating
add to favorites
×
Save as Personal and add changes to this tab that will be seen only by you. Learn more ›
×
You can save this tab as Personal to edit and correct it or add notes. All changes will be seen only by you. Learn more »
launch autoscroll
font size
0
reset
transpose
0
reset
simplify chords
display chords
guitar tuner
edit
Autoscroll
slow
fast
+/-
esc
set tempo
stop
Strumming
There is no strumming pattern for this song yet. and get +5 IQ
Artist: Der Nino aus Wien
Song: Die Lieder
Album: Down in Albern
Year: 2009

Chords used:
Am7: x02010
Em:  022000
D6:  x20202
Bm:  x24432
Bm7: x24232

To note: Intro and Interlude are NOT relative to Capo

[Intro]
        Am7                    Em                  D6                    Em
E|--13---------13--11-|-8-------------6--8-|-11------11/13--11-|-8----6-8------6--8-|
B|--------------------|--------------------|-------------------|--------------------|
G|--------------------|--------------------|-------------------|--------------------|
D|--------------------|--------------------|-------------------|--------------------|
A|--------------------|--------------------|-------------------|--------------------|
E|--------------------|--------------------|-------------------|--------------------|

         Am7                    Em                   D6               Em          Am7
E|--13----16--13--11--8-|-6--4--6-4-6/8--6--8-|-11--------11--8-|-6-8----------|--13--|
B|----------------------|---------------------|-----------------|--------------|------|
G|----------------------|---------------------|-----------------|--------------|------|
D|----------------------|---------------------|-----------------|--------------|------|
A|----------------------|---------------------|-----------------|--------------|------|
E|----------------------|---------------------|-----------------|--------------|------|


[Verse]
Am7                                     Em
Jeden Abend sitze ich hier und höre die Lieder
        D6                                         Em
Meiner größten Helden, viele sind tot doch einige nicht
          Am7                                   Em
Ich weiß jedes Wort genau und doch hör ich sie wieder
         D6                                       Bm 
Und die Zeit vergeht so schnell bis der Morgen anbricht
        Am7               Bm
Ja die Zeit vergeht so schnell 
Am7         Bm7     Em
    bis der Morgen anbricht


[Interlude]
        Em
E|--13----------------|
B|--------------------|
G|--------------------|
D|--------------------|
A|--------------------|
E|--------------------|

           Am7                          Em                           D6                   Em  
E|--8-8-8-8---8-8---8-----|--------11-------11-------11---|------8-8-8---8-8---8---|------------------|
B|-9-9-9-9-----9-----9/11-|-11-13----13---13--13---13--13-|-9---9-9-9-----9-----9--|-11-13------------|
G|------------------------|-------------------------------|------------------------|------------------|
D|------------------------|-------------------------------|------------------------|------------------|
A|------------------------|-------------------------------|------------------------|------------------|
E|------------------------|-------------------------------|------------------------|------------------|

           Am7                          Em                           D6                Bm  
E|--8-8-8-8---8-8---8-----|--------11-------11-------11---|------8-8-8---8-8---8---|------------------|
B|-9-9-9-9-----9-----9/11-|-11-13----13---13--13---13--13-|-9---9-9-9-----9-----9--|-8---------8-9-8--|
G|------------------------|-------------------------------|------------------------|------------------|
D|------------------------|-------------------------------|------------------------|------------------|
A|------------------------|-------------------------------|------------------------|------------------|
E|------------------------|-------------------------------|------------------------|------------------|

   Am7            Bm          Am7   Bm7   Em                     Am7
E|---------8-------11----------------------13------------16---|--13--|
B|--9---------------------------9----11-----------------------|------|
G|------------------------------------------------------------|------|
D|------------------------------------------------------------|------|
A|------------------------------------------------------------|------|
E|------------------------------------------------------------|------|

[Verse]
Am7                                     Em
Jeden Abend sitze ich hier und höre die Lieder
        D6                                         Em
Meiner größten Helden, viele sind tot doch einige nicht
          Am7                                   Em
Ich weiß jedes Wort genau und doch hör ich sie wieder
         D6                                       Bm 
Und die Zeit vergeht so schnell bis der Morgen anbricht
        Am7               Bm
Ja die Zeit vergeht so schnell 
Am7         Bm7     Em
    bis der Morgen anbricht

***********************************
 
| / Slide up

***********************************

            
            
Suggest correction
Creating personal tab
Creating personal tab
You can edit any tab online and save it as your Personal.

You can edit, replace or remove any tab part or add personal notes – all changes will be seen only by you.

Personal tabs can be accessed anytime from any device, even offline.
Learn more »
Give kudos to tab author, rate the tab!
1 2 3 4 5
comments
print report bad tab
guest
You may want to rate the tab now too:
select rating
Wanna post a correction for this tab? Suggest correction