Oops, an error
Loading. Please wait.

Forevermore Chords

version 1
version 1

Whole song

Interactive

13 views 1 this week
no commentswrite comment
1 2 3 4 5
3 more votes to show rating
add to favorites
launch autoscroll
font size
0
reset
transpose
0
reset
display chords
guitar tuner
Autoscroll
slow
fast
+/-
esc
set tempo
stop
Help us to improve Ultimate-Guitar.com Take our survey!
×
Author
Difficulty
Tuning
intermediate
D# G# C# F# A# D#
[Intro]

e|---------------------------10--13--12---------------------------------------------------|
B|-------6--8--8b--8b--6--8--------------13-----11--10--11--10----------------------------|
G|----7---------------------------------------------------------12------10--12b--10-------|
D|------------------------------------------------------------------12--------------------|
A|----------------------------------------------------------------------------------------|
E|----------------------------------------------------------------------------------------|

e|--------------------------------------------------5-6-5---------------------------------|
B|-------------6-----6--------------8b--6--8--6--8---------8-6-8-6-5----------------------|
G|----10----7-----7-----7--7--5--5------------------------------------7-------------------|
D|----------------------------------------------------------------------------------------|
A|----------------------------------------------------------------------------------------|
E|----------------------------------------------------------------------------------------|

e|-----------------------------------------17-15-13----13-13----13-12-10----10-10---------|
B|------------------6--8b--6--8--6--5-6-5-----------17-------------------13---------------|
G|----5-----7----7------------------------------------------------------------------------|
D|-------7--------------------------------------------------------------------------------|
A|----------------------------------------------------------------------------------------|
E|----------------------------------------------------------------------------------------|

e|----------------------------------------------------------------------------------------|
B|----8b--6--8----6-5-6-5-----------------------------------------------------------------|
G|----------------------------------------------------------------------------------------|
D|----------------------------------------------------------------------------------------|
A|----------------------------------------------------------------------------------------|
E|----------------------------------------------------------------------------------------|

b = Bend


[Verse]

Dm   C     G               C      Bb     F
Everyday I stay behind the window of the world.
Dm      C         G             C
All the times you are inside my fantasy
Dm  C        G                 C    Bb       F
Run away far from your life or rise again so strong?
G             Bb             A
I can see you turn around my destiny


[Bridge]

Bb
Now I want a chance to tell you
C
What I feel inside


[Chorus]

       F
Forevermore
Bb            C
I will try to take your heart
A                 Dm     C
I won't close the door
Bb               C
Every night I'll wait the time to come
          F
And now I fall
Bb             C
In the silence of my life
A                Dm     C
Looking for your eyes
Bb              F
Till the end of time, forevermore


[Verse]

Dm      C       G                   C         Bb        F          
I would like to change the time and bring you your true soul
Dm    C        G                     C  
But I see your eyes, there’s so much emptyness
Dm       C       G                 C       Bb        F
Throglor is your biggest ruin, and now you play your role
G           Bb                 A        
And forever you will show your thankfullness


[Bridge]

Bb
Now another chance to tell you
C
What I feel inside


[Chorus]

       F
Forevermore
Bb            C
I will try to take your heart
A                 Dm     C
I won't close the door
Bb               C
Every night I'll wait the time to come
          F
And now I fall
Bb             C
In the silence of my life
A                Dm     C
Looking for your eyes
Bb              F
Till the end of time, forevermore
Suggest correction
Give kudos to tab author, rate the tab!
1 2 3 4 5
comments
print report bad tab
guest
You may want to rate the tab now too:
select rating
Wanna post a correction for this tab? Suggest correction