Oops, an error
Loading. Please wait.

Bell Bottom Blues Tab

version 1
version 1

Whole song

Interactive

3,384 views 45 this week
no commentswrite comment
1 2 3 4 5
x 4
add to favorites
launch autoscroll
font size
0
reset
how to read this tab
guitar tuner
Autoscroll
slow
fast
+/-
esc
set tempo
stop
Help us to improve Ultimate-Guitar.com Take our survey!
×
Author
Difficulty
novice
Artist: Derek and The Dominos
Song: Bell Bottom Blues
Standard Tuning

[Verse/Intro]
     (C)                   (E)          (Am)         (C/G)          (F)
e|-------------------------------------------------------------------1--|
B|-----------------1-------------0-----------1-----------1-----------1--|
G|--------------0----0-------------1-----------2-----------0---------2--|
D|-------0--0h2--------2------2------2----2------2------------2------3--|
A|---2-3-------------------2------------0--------------3-------------3--|
E|---------------------------------------------------3---------------1--|

     (G)   (F) (F7) (G)
e|---/3-----1----1---3----|
B|---/3-----1----1---3----|
G|---/4-----2----2---4----|
D|---/5-----3----1---5----|
A|---/5-----3----3---5----|
E|---/3-----1----1---3----|

(Listen for the strumming patern in the song)

[Chords]
C: x32010    E:022100   Am:x02210   C/G: 332010   F: 133211  G: 355433   F7: 131211

A: X02220    E/G#: 4x245x   F#m: 233222  D: xx0232

Amaj7: x02120  A7: x02020

[Verse]
            C     E            Am    C/G
Bell bottom blues, you made me cry.
C/G             F                 G   F F7 G
I don't want to lose this feeling.
               C       E         Am  C/G
And if I could choose a place to die
C/G           F          G
It would be in your arms.

[Pre-Chorus]
A                     E/G#             F#m              D  E
Do you want to see me crawl across the floor to you?
A                     E/G#                F#m
Do you want to hear me beg you to take me back?
    D      E
I'd gladly do it because

[Chorus]
A               Amaj7 A7
I don't want to fade away.
D                E
Give me one more day, please
A               Amaj7 A7
I don't want to fade away.
D               E               D A E
In your heart I want to stay.

It's all wrong, but it's all right.
The way that you treat me baby.
Once I was strong but I lost the fight.
You won't find a better loser.

[Pre-Chorus and Chorus 2x]
Bell bottom blues, don't say goodbye.
I'm sure we're gonna meet again,
And if we do, don't you be surprised
If you find me with another lover.

[Pre-Chorus and Chorus]
I don't want to fade away.
Give me one more day please.
I don't want to fade away.
In your heart I long to stay
Suggest correction
comments
print report bad tab
guest
You may want to rate the tab now too:
select rating
Wanna post a correction for this tab? Suggest correction