Oops, an error
Loading. Please wait.

Layla bass

version 1
version 1

Whole song

Interactive

40,818 views 69 this week
2 commentsread comments
1 2 3 4 5
x 12
add to favorites
×
Save as Personal and add changes to this tab that will be seen only by you. Learn more ›
×
You can save this tab as Personal to edit and correct it or add notes. All changes will be seen only by you. Learn more »
launch autoscroll
font size
0
reset
guitar tuner
backing track
0:00
0:00
edit
Autoscroll
slow
fast
+/-
esc
set tempo
stop
Author
Unregistered
Song:    Layla
Band:    Derek & The Dominos
Bassist: Carl Radle
Album:   Layla & Other Assorted Love Songs

Note that this is an incomplete tab. If any one wants to add the outro,
please do.
I've tried made it as easy to follow as i can. Let me know what you
think.

[Intro/Chorus/Solo]
                                    
G| |---------------|-----------------|   |---------------| |--------||
D|4|---------------|-----------------|   |---------------|2|--------||
A|4|-5--5-5-1--1-1-|-3--3-3-5--5-0-3-|x3 |-5--5-5-1--1-1-|4|-3--3-3-||
E| |---------------|-----------------|   |---------------| |--------||


[Verse]
G| |--------------------|-------------4-6-|-----------------|----------------|
D|4|----------------2-4-|-6--6-4-6--6-----|-----------------|-2--2--2--------|
A|4|-4--4-4--4-4--4-----|-----------------|-4--4-4--4-3--5--|--------4-2-----|
E| |--------------------|-----------------|-----------------|------------0-1-|

G| |----------------|-----------------9-|-11--11-9-----------|--------------||
D|4|----------------|--------6-7--9-11--|---------11-9--9-7--|--------------||
A|4|------------4-6-|-7--7-9------------|------------------9-|-7--7-5-------||
E| |-2--4-5-7--7----|-------------------|--------------------|-------7-5----||

chorus then verse x3, then chorus until the extended outro.

************************************

| x  Dead note 

************************************

            
            
Suggest correction
Creating personal tab
Creating personal tab
You can edit any tab online and save it as your Personal.

You can edit, replace or remove any tab part or add personal notes – all changes will be seen only by you.

Personal tabs can be accessed anytime from any device, even offline.
Learn more »
comments
print report bad tab
2 comments total.
+1 reply
TheManimal 158 Jul 13, 2011 07:07 PM

Learnt it with no problem!

-1 reply
tydogg2443 522 May 26, 2013 07:35 PM

Just want to mention, this entire section of the song was sped up in the studio, and the pitch was effected. So if you want to play along with the original recording, you should tune up about a quarter step sharper than the standard A440. I think it was mentioned in the other version of the tab, but not on this one. Also, I think the outro is in standard A440. So unless you want to retune on-the-fly, you'll either have to play through and bear it or pop it into a DAW and pitch adjust and/or timeshrink the sped up part of the song.

guest
Wanna post a correction for this tab? Suggest correction