Oops, an error
Loading. Please wait.

Layla Tab

version 1
version 1

Whole song

Interactive

434,068 views 363 this week
27 commentsread comments
1 2 3 4 5
accurate
x 54
add to favorites
launch autoscroll
font size
0
reset
how to read this tab
guitar tuner
Autoscroll
slow
fast
+/-
esc
set tempo
stop
Help us to improve Ultimate-Guitar.com Take our survey!
×
Contributor
Jerk 3,231
LAYLA
by Derek and the Dominoes


 [Intro]
        Moderately Q=116
        N.C.             D5  C5Bb5   F/A C5      A7  D5    N.C.
  4/4
        Gtr I
e|---------------------|-------------------|------------------------------|
B|---------------------|-------------------|------------------------------|
G|---------------------|-------------------|------------------------------|
D|-----------0h=3p0----|-0-----------------|-(0)-------(0)------0h=3p0----|
A|------0h=3---------3-|-------------------|---------------0h=3---------3-|
E|---------------------|-------------------|------------------------------|
|
 |      Gtr II
e|---------------------|-------------------|------------------------------|
B|---------------------|-------------------|------------------------------|
G|-----------7h10p7----|-7-----------------|-(7)-------(7)------7h10p7----|
D|------7h10--------10-|-------------------|---------------7h10--------10-|
A|---------------------|-------------------|------------------------------|
E|---------------------|-------------------|------------------------------|
|
 |      Gtr III
e|---------------------|-------------------|------------------------------|
B|---------------------|-------------------|------------------------------|
G|---------------------|-------------------|------------------------------|
D|-----------0h=3p0----|-0-7s5-3-(3)-3---5-|-(5)-5---7-(7)------0h=3p0----|
A|------0h=3---------3-|---5s3-1-(1)-0---3-|-(3)-0---5-(5)S0h=3---------3-|
E|---------------------|---------------3---|-------3----------------------|


   D5  C5Bb5               A7  D5    N.C.
e|-------------------|---------------------10h13p10----|
B|-------------------|---------------10h13----------13-|
G|-------------------|---------------------------------|
D|-0-----------------|-(0)-------(0)-------------------|
A|-------------------|---------------------------------|
E|-------------------|---------------------------------|
|
e|-------------------|---------------------------------|
B|-------------------|---------------------------------|
G|-7-----------------|-(7)-------(7)--------7h10p=7----|
D|-------------------|----------------7h10----------10-|
A|-------------------|---------------------------------|
E|-------------------|---------------------------------|
|
e|-------------------|---------------------------------|
B|-------------------|---------------------------------|
G|-------------------|---------------------------------|
D|-0-7s5-3-(3)-3---5-|-(5)-5---7-(7)--------0h=3p=0----|
A|---5s3-1-(1)-0---3-|-(3)-0---5-(5)S=0h=3-----------3-|
E|---------------3---|-------3-------------------------|


    [Intro (cont.), Choruses]
     $
     $$
        D5C5Bb5             F/A  C5        A7   D5      N.C.
e||--10-----13b15-(13)-(13)-13---12-|-(12)------10-(10)-------10h13p10----|
B||o--------------------------------|------13-----------10h13----------13-|
G||---------------------------------|-------------------------------------|
D||---------------------------------|-------------------------------------|
A||o--------------------------------|-------------------------------------|
E||---------------------------------|-------------------------------------|
|
e||---------------------------------|-------------------------------------|
B||o--------------------------------|-------------------------------------|
G||---7-----------------------------|--(7)----------(7)--------7h10p=7----|
D||---------------------------------|--------------------7h10----------10-|
A||o--------------------------------|-------------------------------------|
E||---------------------------------|-------------------------------------|
|
e||---------------------------------|-------------------------------------|
B||o--------------------------------|-------------------------------------|
G||---------------------------------|-------------------------------------|
D||---0-7s5---------3---(3)--3----5-|--(5)--5----7--(7)--------0h=3p=0----|
A||o----5s3---------1---(1)--0----3-|--(3)--0----5--(5)S=0h=3-----------3-|
E||----------------------------3----|---------3---------------------------|


                                   1.                                       2.
                                                                                    To Coda
                                                                                    To Coda
   D5   C5Bb5             F/A  C5        A7   D5      N.C.
                                                                           2/4
e|-10-----15b17-(15)-(15)-15---12-|-(12)------10-(10)-------10h13p10-----||-12----------------||
B|--------------------------------|------13-----------10h13----------13-o||-----13---13b15----||
G|--------------------------------|--------------------------------------||-------------------||
D|--------------------------------|--------------------------------------||-------------------||
A|--------------------------------|-------------------------------------o||-------------------||
E|--------------------------------|--------------------------------------||-------------------||
|
e|--------------------------------|--------------------------------------||-------------------||
B|--------------------------------|-------------------------------------o||-------------------||
G|--7-----------------------------|--(7)----------(7)--------7h10p=7-----||--7----------------||
D|--------------------------------|--------------------7h10----------10--||-------------------||
A|--------------------------------|-------------------------------------o||-------------------||
E|--------------------------------|--------------------------------------||-------------------||
|
e|--------------------------------|--------------------------------------||-------------------||
B|--------------------------------|-------------------------------------o||-------------------||
G|--------------------------------|--------------------------------------||-------------------||
D|--0-7s5---------3---(3)--3----5-|--(5)--5----7--(7)--------0h=3p=0-----||--5---5------------||
A|----5s3---------1---(1)--0----3-|--(3)--0----5--(5)S=0h=3-----------3-o||-(3)--0------------||
E|---------------------------3----|---------3----------------------------||--------3----------||


 [Verse]
   C#m                        G#m
  4/4
   Gtr I
                               ~~~~~
e|--------------------------|------------------------------|
B|-(13)--------12b14r(12)p9-|-11b12-------------11b12r11p9-|
G|--------------------------|------------------------------|
D|--------------------------|------------------------------|
A|--------------------------|------------------------------|
E|--------------------------|------------------------------|
|
 | Gtr III
e|---4---4--4---4-----------|--4-----4-4-4-4-4---4---------|
B|---5---5--5---5-----------|--4-----4-4-4-4-4---4---------|
G|---6---6--6---6-----------|--4-----4-4-4-4-4---4---------|
D|---6---6--6---6-----------|--6-----6-6-6-6-6---6---------|
A|---4---4--4---4-----------|--6-----6-6-6-6-6---6---------|
E|--------------------------|--4-----4-4-4-4-4---4---------|


   C#m7                C7      D7
                     ~~~~~~
e|------------------------------------|
B|------------------------------------|
G|-11b13--11b13r(11)p9-(9)-----11-----|
D|------------------------------------|
A|------------------------------------|
E|------------------------------------|
|
e|------------------------------------|
B|--5------5------------5--5-5--7-7-7-|
G|--4------4------------3--3-3--5-5-5-|
D|--6------6------------5--5-5--7-7-7-|
A|--4------4------------3--3-3--5-5-5-|
E|------------------------------------|


   E7                                     F#m           B
   Gtr I
                                          ~
e|---------12-(12)----------------------|-------------------------------|
B|---------12-(12)----------------------|-----9-------------------------|
G|-11b13=======11r(11)-9---11---9-------|-9-9---11------9-9----9---11---|
D|---------------------------------9h11-|----------11-------11----------|
A|--------------------------------------|-------------------------------|
E|--------------------------------------|-------------------------------|
|
 | Gtr III
e|--------------------------------------|-----4--2--2-2-----------------|
B|----------9----------9-9--9-9-9\------|-----2--2--2-2-4----4----------|
G|----------7----------7-7--7-7-7\------|-----2--2--2-2-4----4----------|
D|----------9----------9-9--9-9-9\------|-4---4--4--4-4-4----4-6s4--2---|
A|--7-------7----------7-7--7-7-7\------|---------------2----2--------4-|
E|--------------------------------------|-------------------------------|


   E                     A
e|----------------------------------------|
B|--------12------------------------------|
G|-11b13=====11r(11)---9------------------|
D|-----------------------9h11-(11)----11--|
A|----------------------------------------|
E|----------------------------------------|
|
e|---------0--2p==0--0--------------------|
B|---------0--0------0---2----------------|
G|---------1--1------1---2----------------|
D|---------2--2------2---2------4p2-------|
A|---------2--2------2---0----------4-----|
E|--0------0--0------0--------------------|


   F#m                  B
   Gtr I
e|-----------------------------------------------|
B|-----------------------------------------------|
G|------9-9h11p==9----9-11b13===11r(11)---9------|
D|-9h11------------11-----------------------11---|
A|-----------------------------------------------|
E|-----------------------------------------------|
|
 | Gtr II
e|-----------------------------------------------|
B|-----------------------------------------------|
G|-----------------------------------------------|
D|-----------------------------------------------|
A|-----------------------------------------------|
E|-----------------------------------------------|
|
 | Gtr III
e|--------2----2----2----------------------------|
B|--------2----2----2------------4------4----4-4-|
G|--------2----2----2------------4------4----4-4-|
D|--------4----4----4------------4------4----4-4-|
A|--------4----4----4----2-------2------2----2-2-|
E|-2------2----2----2----------------------------|


                    D.S. al Coda
   E        N.C.
   ~
e|------------------10h13p10------||
B|------------10h13----------13---||
G|-9------------------------------||
D|--------------------------------||
A|--------------------------------||
E|--------------------------------||
|
e|--------------------------------||
B|--------------------------------||
G|-------------------7h10p=7------||
D|-------------7h10----------10---||
A|--------------------------------||
E|--------------------------------||
|
e|-0--0-0-0-----------------------||
B|-0--0-0-0-----------------------||
G|-1--1-1-1-----------------------||
D|-2--2-2-2----------0h=3p=0------||
A|-2--2-2-2-0--0h=3-----------0---||
E|-0--0-0-0-----------------------||


 [Verse]
   &
   C#m                        G#m
   Gtr I
                               ~~~~~
e|--------------------------|--------------------------------|
B|-(13)--------12b14r(12)p9-|-11b12-------------11b12r(11)p9-|
G|--------------------------|--------------------------------|
D|--------------------------|--------------------------------|
A|--------------------------|--------------------------------|
E|--------------------------|--------------------------------|
|
 | Gtr III
e|---4---4--4---4-----------|--4-----4-4-4-4-4---4-----------|
B|---5---5--5---5-----------|--4-----4-4-4-4-4---4-----------|
G|---6---6--6---6-----------|--4-----4-4-4-4-4---4-----------|
D|---6---6--6---6-----------|--6-----6-6-6-6-6---6-----------|
A|---4---4--4---4-----------|--6-----6-6-6-6-6---6-----------|
E|--------------------------|--4-----4-4-4-4-4---4-----------|


   C#m7               C7    D7
                      ~
e|---------------------------------|
B|---------------------------------|
G|-11b13===11r(11)--9-9-----11-----|
D|---------------------------------|
A|---------------------------------|
E|---------------------------------|
|
e|---------------------------------|
B|--5-------5---------5-5-5--7-7-7-|
G|--4-------4---------3-3-3--5-5-5-|
D|--6-------6---------5-5-5--7-7-7-|
A|--4-------4---------3-3-3--5-5-5-|
E|---------------------------------|


   E7                                    F#m             B
   Gtr I
                                                ~                 ~~
e|--------12---------------------------|-----------------------------------|
B|--------12---------------------------|-----------------------------------|
G|-11b13=====11r(11)p9-11p9----9-9-----|------9-9---------------9-9--------|
D|--------------------------11------11-|-9h11-------11---9h11---------11---|
A|-------------------------------------|-----------------------------------|
E|-------------------------------------|-----------------------------------|
|
 | Gtr III
e|-------------------------------------|--------4-2--2-2-------------------|
B|------------9---------9-9--9-9-9\----|--------2-2--2-2-4----4------------|
G|------------7---------7-7--7-7-7\----|--------2-2--2-2-4----4------------|
D|------------9---------9-9--9-9-9\----|-4------4-4--4-4-4----4---6s4--2---|
A|--7---------7---------7-7--7-7-7\----|-----------------2----2----------4-|
E|-------------------------------------|-----------------------------------|


   E                      A
e|-----------------------------------------------|
B|-----------------------------------------------|
G|--------9-11-9-11-11b13r(11)-9-11----9---------|
D|-9h11-----------------------------11-------11--|
A|-----------------------------------------------|
E|-----------------------------------------------|
|
e|------0----2p0--0------------------------------|
B|------0----0----0---------2--------------------|
G|------1----1----1---------2--------------------|
D|------2----2----2---------2----------4p2-------|
A|------2----2----2---------0--------------4-----|
E|-0----0----0----0------------------------------|


                                                    D.S.S. al Dbl. Coda
   F#m                         B             E        N.C.
   Gtr I
                                             ~
e|-----------------------------------------|------------------10h13p10----||
B|-----------------------------------------|------------10h13----------13-||
G|------9-11b13======11r(11)-9-11b13-------|-9----------------------------||
D|-9h11------------------------------------|------------------------------||
A|-----------------------------------------|------------------------------||
E|-----------------------------------------|------------------------------||
|
 | Gtr II
e|-----------------------------------------|------------------------------||
B|-----------------------------------------|------------------------------||
G|-----------------------------------------|-------------------7h10p=7----||
D|-----------------------------------------|-------------7h10----------10-||
A|-----------------------------------------|------------------------------||
E|-----------------------------------------|------------------------------||
|
 | Gtr III
e|---------2-----2-2-----------------------|-0--0-0-0---------------------||
B|---------2-----2-2------------4----4-4-4-|-0--0-0-0---------------------||
G|---------2-----2-2------------4----4-4-4-|-1--1-1-1---------------------||
D|---------4-----4-4------------4----4-4-4-|-2--2-2-2----------0h=3p=0----||
A|---------4-----4-4--2---------2----2-2-2-|-2--2-2-2-0--0h=3-----------0-||
E|-2-------2-----2-2-----------------------|-0--0-0-0---------------------||


 [Verse]
   &&
   C#m                        G#m
   Gtr I
                               ~~~~~
e|--------------------------|--------------------------------|
B|-(13)--------12b14r(12)p9-|-11b12-------------11b12r(11)p9-|
G|--------------------------|--------------------------------|
D|--------------------------|--------------------------------|
A|--------------------------|--------------------------------|
E|--------------------------|--------------------------------|
|
 | Gtr III
e|---4---4--4---4-----------|--4-----4-4-4-4-4---4-----------|
B|---5---5--5---5-----------|--4-----4-4-4-4-4---4-----------|
G|---6---6--6---6-----------|--4-----4-4-4-4-4---4-----------|
D|---6---6--6---6-----------|--6-----6-6-6-6-6---6-----------|
A|---4---4--4---4-----------|--6-----6-6-6-6-6---6-----------|
E|--------------------------|--4-----4-4-4-4-4---4-----------|


   C#m7               C7    D7
                      ~
e|---------------------------------|
B|---------------------------------|
G|-11b13===11r(11)--9-9-----11-----|
D|---------------------------------|
A|---------------------------------|
E|---------------------------------|
|
e|---------------------------------|
B|--5-------5---------5-5-5--7-7-7-|
G|--4-------4---------3-3-3--5-5-5-|
D|--6-------6---------5-5-5--7-7-7-|
A|--4-------4---------3-3-3--5-5-5-|
E|---------------------------------|


   E7
   Gtr I
e|---------------12--------------------------|
B|-------------------------------------------|
G|-11b13--11b13=====11r(11)p==9------9-------|
D|------------------------------11------11-9-|
A|-------------------------------------------|
E|-------------------------------------------|
|
 | Gtr III
e|-------------------------------------------|
B|---------9---------9------9----9-9-9\------|
G|---------7---------7------7----7-7-7\------|
D|---------9---------9------9----9-9-9\------|
A|--7------7---------7------7----7-7-7\------|
E|-------------------------------------------|


   F#m             B                   E                  A
          ~                 ~~
e|-----------------------------------|--------x---------------------------------|
B|-----------------------------------|------------------------------------------|
G|------9-9---------------9-9------9-|-11b13====11r(11)p9-9h11p9----9-9------9--|
D|-9h11-------11---9h11---------11---|---------------------------11-------11----|
A|-----------------------------------|------------------------------------------|
E|-----------------------------------|------------------------------------------|
|
e|--------4-2--2-2-------------------|--------0--2p==0--0-----------------------|
B|--------2-2--2-2-4----4------------|--------0--0------0-2---------------------|
G|--------2-2--2-2-4----4------------|--------1--1------1-2---------------------|
D|-4------4-4--4-4-4----4---6s4--2---|--------2--2------2-2-----------4p2-------|
A|-----------------2----2----------4-|--------2--2------2-0----------------4----|
E|-----------------------------------|--0-----0--0------0-----------------------|


   F#m                        B          E        N.C.
   Gtr I
                                         ~
e|-------------------------------------|------------------10h13p10----||
B|-------12----------------------------|------------10h13----------13-||
G|-11s13----13s11---9-11----9-11---9-9-|-9----------------------------||
D|-----------------------11------------|------------------------------||
A|-------------------------------------|------------------------------||
E|-------------------------------------|------------------------------||
|
 | Gtr II
e|-------------------------------------|------------------------------||
B|-------------------------------------|------------------------------||
G|-------------------------------------|-------------------7h10p=7----||
D|-------------------------------------|-------------7h10----------10-||
A|-------------------------------------|------------------------------||
E|-------------------------------------|------------------------------||
|
 | Gtr III
e|--------------2-2-2------------------|-0--0-0-0---------------------||
B|--------------2-2-2----------4-4-4-4-|-0--0-0-0---------------------||
G|--------------2-2-2----------4-4-4-4-|-1--1-1-1---------------------||
D|--------------4-4-4----------4-4-4-4-|-2--2-2-2----------0h=3p=0----||
A|--------------4-4-4--2-------2-2-2-2-|-2--2-2-2-0--0h=3-----------0-||
E|--2-----------2-2-2------------------|-0--0-0-0---------------------||


    3rd Chorus into Slide Guitar
     D5   C5Bb5             F/A  C5        A7   D5      N.C.
     Gtr I
e||--10-----13b15-(13)-(13)-13---12-|-(12)------10-(10)-------10h13p10----|
B||o--------------------------------|------13-----------10h13----------13-|
G||---------------------------------|-------------------------------------|
D||---------------------------------|-------------------------------------|
A||o--------------------------------|-------------------------------------|
E||---------------------------------|-------------------------------------|
|
 |   Gtr II
 |    ~~~~~~~~~~~~~~~~~~~~~~~~~~~~~~~~~~~~~~~~~~~~~~~~~~~
e||---------------------------------|-------------------------------------|
B||o--------------------------------|-------------------------------------|
G||---7-----------------------------|--(7)----------(7)--------7h10p=7----|
D||---------------------------------|--------------------7h10----------10-|
A||o--------------------------------|-------------------------------------|
E||---------------------------------|-------------------------------------|
|
 |   Gtr III
e||---------------------------------|-------------------------------------|
B||o--------------------------------|-------------------------------------|
G||---------------------------------|-------------------------------------|
D||---0-7s5---------3---(3)--3----5-|--(5)--5----7--(7)--------0h=3p=0----|
A||o----5s3---------1---(1)--0----3-|--(3)--0----5--(5)S=0h=3-----------3-|
E||----------------------------3----|---------3---------------------------|


   D5   C5Bb5             F/A  C5        A7   D5      N.C.
                                                                         9x
e|-10-----15b17-(15)-(15)-15---12-|-(12)------10-(10)-------10h13p10-----||
B|--------------------------------|------13-----------10h13----------13-o||
G|--------------------------------|--------------------------------------||
D|--------------------------------|--------------------------------------||
A|--------------------------------|-------------------------------------o||
E|--------------------------------|--------------------------------------||
|
 |  ~~~~~~~~~~~~~~~~~~~~~~~~~~~~~~~~~~~~~~~~~~~~~~~~~~~
 |                                                                       9x
e|--------------------------------|--------------------------------------||
B|--------------------------------|-------------------------------------o||
G|--7-----------------------------|--(7)----------(7)--------7h10p=7-----||
D|--------------------------------|--------------------7h10----------10--||
A|--------------------------------|-------------------------------------o||
E|--------------------------------|--------------------------------------||
|
 |                                                                       9x
e|--------------------------------|--------------------------------------||
B|--------------------------------|-------------------------------------o||
G|--------------------------------|--------------------------------------||
D|--0-7s5---------3---(3)--3----5-|--(5)--5----7--(7)--------0h=3p=0-----||
A|----5s3---------1---(1)--0----3-|--(3)--0----5--(5)S=0h=3-----------3-o||
E|---------------------------3----|---------3----------------------------||


   D5   C5Bb5             F/A  C5
   Gtr I
e|-10-----13b15-(13)-(13)-13---12-|
B|--------------------------------|
G|--------------------------------|
D|--------------------------------|
A|--------------------------------|
E|--------------------------------|
|
 | Gtr II
 |  ~~~~~~~~~~~~~~~~~~~~~~~~~~~~~~~
e|--------------------------------|
B|--------------------------------|
G|--7-----------------------------|
D|--------------------------------|
A|--------------------------------|
E|--------------------------------|
|
 | Gtr III
e|--------------------------------|
B|--------------------------------|
G|--------------------------------|
D|--0-7s5---------3---(3)--3----5-|
A|----5s3---------1---(1)--0----3-|
E|---------------------------3----|


        A7   D5      N.C.                D5   C5Bb5             F/A  C5
e|-(12)------10-(10)-------10-13-10----|-10-----15b17-(15)-(15)-15---12-|
B|------13-----------10-13----------13-|--------------------------------|
G|-------------------------------------|--------------------------------|
D|-------------------------------------|--------------------------------|
A|-------------------------------------|--------------------------------|
E|-------------------------------------|--------------------------------|
|
 |~~~~~~~~~~~~~~~~~~~~                    ~~
e|-------------------------------------|--------------------------------|
B|-------------------------------------|--------------------------------|
G|--(7)----------(7)--------7h10p=7----|--7-----------------------------|
D|--------------------7h10----------10-|--------------------------------|
A|-------------------------------------|--------------------------------|
E|-------------------------------------|--------------------------------|
|
e|-------------------------------------|--------------------------------|
B|-------------------------------------|--------------------------------|
G|-------------------------------------|--------------------------------|
D|--(5)--5----7--(7)--------0h=3p=0----|--0-7s5---------3---(3)--3----5-|
A|--(3)--0----5--(5)S=0h=3-----------3-|----5s3---------1---(1)--0----3-|
E|---------3---------------------------|---------------------------3----|


                           C5
         ~~~~~~~
e|-(12)------------------|---------||
B|------13-(13)----------|-(13)----||
G|-----------------------|---------||
D|-----------------------|---------||
A|-----------------------|---------||
E|-----------------------|---------||
|
 |   ~~~~
e|-----------------------|---------||
B|-----------------------|---------||
G|--(7)------------------|---------||
D|------10-(10)----------|-(10)----||
A|-----------------------|---------||
E|-----------------------|---------||
|
e|-----------------------|---------||
B|-----------------------|---------||
G|-----------------------|---------||
D|--(5)------------(5)---|---------||
A|--(3)------------(3)---|---3-----||
E|---------------------3-|---------||


 [Interlude]
e|-----|
B|-----|
G|-----|
D|-----|
A|-----|
E|-----|


     C                C/E             F
     Gtr I
e||-----------------|---------------|----------------|--------|
B||o----------------|---------------|------------5---|--------|
G||--5--5-7-(7)-5---|-7s9----7-5----|--------5-7-----|--------|
D||-----------------|-------------7-|-(7)----------7-|-(7)----|
A||o----------------|---------------|----------------|--------|
E||-----------------|---------------|----------------|--------|


   Bb                          C
e|------------|--------------|------------|------||
B|------------|-5------------|------------|-----o||
G|--------5-7-|----7--5----5-|-(5)--------|------||
D|------6-----|---------6----|------------|------||
A|------------|--------------|------------|-----o||
E|------------|--------------|------------|------||


   Am             Dm             G              C          G/B
e|--------------|--------------|--------------|---------------|
B|---5--5-6-8-8-|-(8)--6--6----|--------5-6-6-|-(6)--5--5-----|
G|--------------|--------------|---7--7-------|------------7--|
D|--------------|--------------|--------------|---------------|
A|--------------|--------------|--------------|---------------|
E|--------------|--------------|--------------|---------------|


   Am             Dm                 G
e|--------------|------------------|-----------------|------------------|
B|--------------|------------------|-----------------|------------------|
G|-5----5-7-5-7-|-(7)-----------5--|-5--4-4-(4)------|------------------|
D|--------------|------7-7-(7)-----|-------------7-7-|-(7)--5-5-(5)--5--|
A|--------------|------------------|-----------------|------------------|
E|--------------|------------------|-----------------|------------------|


     C               C/E          F
e||--3---3-(3)--3--|-3----3-5-7-|-7--5-5-(5)--3-3-|-(3)--1-1-(1)--0---||
B||o-5---5-(5)--3--|-5----5-6-8-|-8--6-6-(6)--5-5-|-(5)--3-3-(3)--1--o||
G||----------------|------------|-----------------|-------------------||
D||----------------|------------|-----------------|-------------------||
A||o---------------|------------|-----------------|------------------o||
E||----------------|------------|-----------------|-------------------||


   Bb                              C
e|----------------|--------------|------------|-----|
B|-6----(6)-------|-5------------|------------|-----|
G|-7----(7)---5-7-|----7--5----5-|-(5)--------|-----|
D|----------6-----|---------6----|------------|-----|
A|----------------|--------------|------------|-----|
E|----------------|--------------|------------|-----|


                                                   1.,2.,3.,4.
     C               C/E          F
                                                                      5x
e||--3---3-(3)--3--|-3----3-5-7-|-7--5-5-(5)--3-3-|-(3)--1-1-(1)--0---||
B||o-5---5-(5)--3--|-5----5-6-8-|-8--6-6-(6)--5-5-|-(5)--3-3-(3)--1--o||
G||----------------|------------|-----------------|-------------------||
D||----------------|------------|-----------------|-------------------||
A||o---------------|------------|-----------------|------------------o||
E||----------------|------------|-----------------|-------------------||


   5.         H.=H
                       Bb
e|-3--1-1-(1)-(1)-0--|----------------|-------------|
B|-5--3-3-(3)-(3)-1--|-6----(6)-------|-5-----------|
G|-------------------|-7----(7)---5-7-|----7--5-----|
D|-------------------|----------6-----|---------6---|
A|-------------------|----------------|-------------|
E|-------------------|----------------|-------------|


   C
e|---------^0----:-(0)--------:-(0)----*|
B|-------1-^1----:-(1)--------:-(1)----*|
G|-----0---^0----:-(0)--------:-(0)----*|
D|---2-----------:------------:--------*|
A|-3-------------:------------:--------*|
E|---------------:------------:--------*|



************************************

| x    Dead note
| (n)  Ghost note
| h    Hammer-on
| p    Pull-off
| r    Release
| b    Bend
| \    Slide down

************************************
comments
print report bad tab
27 comments total. Showing first comments.
+3 reply
stpd1 33 wrote on June 28 2004, 12:00 am

lyrics would help A LOT

+5 reply
Strat_Monkey 710 wrote on November 15 2004, 12:00 am

This was just generally confusing.

0 reply
theoddmenout 3,156 wrote on April 21 2005, 12:00 am

It looks really good compared to others, but I'll have to try it out

I want to post or [tab]
guest
You may want to rate the tab now too:
select rating
Please do not post tabs as comments. Select "correction" instead!