Oops, an error
Loading. Please wait.

Layla bass

version 2
version 2

Whole song

Interactive

1,294 views 6 this week
no commentswrite comment
1 2 3 4 5
3 more votes to show rating
add to favorites
×
Save as Personal and add changes to this tab that will be seen only by you. Learn more ›
×
You can save this tab as Personal to edit and correct it or add notes. All changes will be seen only by you. Learn more »
launch autoscroll
font size
0
reset
guitar tuner
edit
Autoscroll
slow
fast
+/-
esc
set tempo
stop
Author
Difficulty
-------------------------------------------------------------------------------
			     Layla - Eric Clapton/Derek and the Dominoes
-------------------------------------------------------------------------------

Tabbed By : Zimmj002
e-mail: Zimmj002@hotmail.com

Intro/Chorus
G|------------------------------------------------|
D|------0--3--0-----0--0--------------------------|
A|0--3-----------3--------3--1--0-----3--0--3--5--|
E|---------------------------------3--------------|


Verse
G|-------------------------------------------------------9--9----------------|
D|---------------------------------------------------------------------------|
A|0--3--4---4--4-4--4p2-------------2--4--4--3--5--7--7--------7--7-------2--|
E|----------------------4---4--4-4-----------------------------------2--2----|

-----------------------------------------|
-----------------------------------------|
2--------0--0--0-----------2--2-------0--|
---0--0-----------4--2--2-------0--0-----|

______________________

Intro
1st Verse
Chorus
2nd Verse
Chorus
3rd Verse
Chorus x2
Solo (play the same as the chorus, feel free to add some little flicks and stuff if you 
feel like it)


I haven't put the coda in, but chances are you won't be playing it anyway. Either finish 
on another chorus or just
end after the solo. Its a good one to extend so everyone gets a solo and can be 
introduced (think of the end of
"The Blues Brothers").


| /  slide up
| \  slide down
| h  hammer-on
| p  pull-off
| ~  vibrato
| +  harmonic
| x  Mute note
===============================================================================

            
            
Suggest correction
Creating personal tab
Creating personal tab
You can edit any tab online and save it as your Personal.

You can edit, replace or remove any tab part or add personal notes – all changes will be seen only by you.

Personal tabs can be accessed anytime from any device, even offline.
Learn more »
Give kudos to tab author, rate the tab!
1 2 3 4 5
comments
print report bad tab
guest
You may want to rate the tab now too:
select rating
Wanna post a correction for this tab? Suggest correction