Oops, an error
Loading. Please wait.

Layla Bass Tab

version 2
version 2

Whole song

Interactive

2,058 views 6 this week
1 commentread comment
1 2 3 4 5
accurate
x 2
add to favorites
launch autoscroll
font size
0
reset
guitar tuner
Tab Pro tools
  • play this tab
  • loop segment
  • change instrument
  • show fretboard
  • metronome
×
Best way to learn
"Layla"
Autoscroll
slow
fast
+/-
esc
set tempo
stop
Contributor
Difficulty
novice
Layla - Derek and the Dominos

*on the recording the time was sped-up, so the tuning
*is not A440.  you will have to tune all strings up
*a bit to play along with recording.

guitar intro [rest]

main                             (4x) [4th time dont play D]
G|----------------|------------------|
D|*---------------|-----------------*|
A|*-5--55--1--11--|-3--33--5--5p03--*|
E|----------------|------------------|

verse   
   C#              G#             C#      C   D      E
G|---------------|----------4-6--|-----------------|---------------|
D|-----------24--|-6---66-66-----|-----------------|---------------|
A|-4--44-44-4----|---------------|-4-44-4-3--x5--x-|-7--77-77-7-7--|
E|---------------|---------------|-----------------|---------------|

   F#                E      A          F#        B          E
G|-----------------|---------------9-|-11--11p9-----------|----------------|
D|-----------------|----4-6-7----11--|---------119---9p7--|----------------|
A|------------4-6--|-7---------------|------------------9-|-7----7p5-------|
E|-2---4-5-7-------|-----------------|--------------------|---------7--5r--|
comments
We did not receive enough feedback on this tab! Please rate:
print report bad tab
1 2 3 4 5
1 comment total.
0 reply
matheusfilier wrote on June 16 2015, 08:42 pm

Missing the ending part, otherwise a nice tab.

I want to post or [tab]
guest
You may want to rate the tab now too:
select rating
Please do not post tabs as comments. Select "correction" instead!