Oops, an error
Loading. Please wait.

Layla Tab

version 2
version 2

Whole song

Interactive

27,638 views 12 this week
6 commentsread comments
1 2 3 4 5
x 10
add to favorites
launch autoscroll
font size
0
reset
how to read this tab
guitar tuner
Autoscroll
slow
fast
+/-
esc
set tempo
stop
Help us to improve Ultimate-Guitar.com Take our survey!
×
Author
Difficulty
intermediate
         Layla
   Derek And The Dominos


Intro. W/distortion

E|----------------------|------------------|
B|----------------------|------------------|
G|----------------------|------------------|
D|--------12h15p12------|--12--------------| 2X
A|-12h15-----------h15--|------------------|
E|----------------------|------------------|

Intro Continued

E|---------10h13p10-----|-10---13b14---13--12-|-----10-------10h13p10------|
B|---10h13----------h13-|---------------------|--13----10h13-----------h13-|
G|----------------------|---------------------|----------------------------|
D|----------------------|---------------------|----------------------------|
A|----------------------|---------------------|----------------------------|
E|----------------------|---------------------|----------------------------|

E|-10---15b16--15--12-|-----10--------10h13p10-----------|
B|--------------------|--13-----10h13----------h13----13-|
G|--------------------|----------------------------------|
D|--------------------|----------------------------------|
A|--------------------|----------------------------------|
E|--------------------|----------------------------------|

Verse
"What will you do when you get lonely? Nobody's waitng by your-
E|-4--4--X-X--4--4-|-4--4--4--4-|-4-4----------------|
B|-5--5--X-X--5--5-|-4--4--4--4-|-5-5----5---7-------|
G|-6--6--X-X--6--6-|-4--4--4--4-|-6-6----5---7-------|
D|-6--6--X-X--6--6-|-6--6--6--6-|-6-6----5---7-------|
A|-4--4--X-X--4--4-|------------|-4-4----3---5-------|
E|-----------------|------------|--------------------|
-side"              "You've been running and hiding much too long"
E|----------------|-2---2----2-----------|-0---0--0-0--0--0-|
B|--9--9---9-9--9-|-2---2----2--4--4-4-4-|-0---0--0-0--2--2-|
G|--9--9---9-9--9-|-2---2----2--4--4-4-4-|-1---1--1-1--2--2-|
D|--9--9---9-9--9-|-2---2----2--4--4-4-4-|-2---2--2-2--2--2-|
A|--7--7---7-7--7-|-4---4----4--2--2-2-2-|-2---2--2-2--0--0-|
E|----------------|-2---2----2-----------|-0---0--0-0-------|
"You know it's just your foolish pride."       "Lay-
E|-2---2--2--2----------|------------------------10h13p10-----|
B|-2---2--2--2---4----4-|------------------10h13----------h13-|
G|-2---2--2--2---4----4-|-------------------------------------|
D|-2---2--2--2---4----4-|-2-----------------------------------|
A|-4---4--4--4---2----2-|-2-----------------------------------|
E|-2---2--2--2----------|-0-----------------------------------|
Chorus.
-La"             "You've got me on my knees"   "Lay-
E|-10--13b14---13--12--|-----10----------10h13p10----|
B|---------------------|-13-------10h13----------h13-|
G|---------------------|-----------------------------|
D|---------------------|-----------------------------|
A|---------------------|-----------------------------|
E|---------------------|-----------------------------|
-la"         "I'm begging darling please"   "Lay-
E|--10---15b16--15--12-|-----10----------10h13p10-----|
B|---------------------|--13-------10h13----------h13-|
D|---------------------|------------------------------|
G|---------------------|------------------------------|
D|---------------------|------------------------------|
A|---------------------|------------------------------|
E|---------------------|------------------------------|
 -la"            "Darling won't you ease my worried mind?"
E|--10--13b14--13--12-|----10---------10h13p10-----|
B|--------------------|-13------10h13----------h13-|
D|--------------------|----------------------------|
G|--------------------|----------------------------|
A|--------------------|----------------------------|
E|--------------------|----------------------------|

E|--10---15b16---15-12--|
B|----------------------|
D|----------------------|
G|----------------------|
A|----------------------|
E|----------------------|

E|-------10--15b16-15--12---|-----10--------10h13p10------|
B|--13----------------------|--13-----10h13-----------h13-|
D|--------------------------|-----------------------------|
G|--------------------------|-----------------------------|
A|--------------------------|-----------------------------|
E|--------------------------|-----------------------------|

Outro

E|-10--15B16--15--12-|----10--------10h13p10----|-10--13b14--13--12--|
B|-------------------|-13-----10h13----------h13-|-------------------|
D|-------------------|---------------------------|-------------------|
G|-------------------|---------------------------|-------------------|
A|-------------------|---------------------------|-------------------|
E|-------------------|---------------------------|-------------------|
                                        Reapeat and fade.

E|-----10-------10h13p10-----|-10--15b16---15--12-|---10------10h13p10----|
B|--13-----10h13---------h13-|--------------------|-13---1h13---------h13-|
D|---------------------------|--------------------|-----------------------|
G|---------------------------|--------------------|-----------------------|
A|---------------------------|--------------------|-----------------------|
E|---------------------------|--------------------|-----------------------|

Well, there it is, I did not put out how many times to reapeat the steps, but you can 
that out by yourself. I hope you have as much fun playing it as I have had tabbing it.
Suggest correction
comments
print report bad tab
6 comments total. Showing first comments.
0 reply
Mcassidy42 61 Aug 18, 2006 10:05 AM

Note that this is just the lead guitar, I have to idea how many guitars are played for the song, but this is the lead version.

0 reply
JS5150 20 Feb 07, 2007 04:20 PM

the slide solo would be amazing

0 reply
HVYMETALMASTER 10 May 22, 2007 06:02 PM

there is three guitars playin

guest
You may want to rate the tab now too:
select rating
Wanna post a correction for this tab? Suggest correction