Oops, an error
Loading. Please wait.

I Belong To You chords

29,671 views 15 this week
3 commentsread comments
1 2 3 4 5
x 12
add to favorites
×
Save as Personal and add changes to this tab that will be seen only by you. Learn more ›
×
You can save this tab as Personal to edit and correct it or add notes. All changes will be seen only by you. Learn more »
launch autoscroll
font size
0
reset
transpose
0
reset
display chords
guitar tuner
edit
Autoscroll
slow
fast
+/-
esc
set tempo
stop
Author
Difficulty
Strumming
There is no strumming pattern for this song yet. and get +5 IQ
http://www.jesusculture.com/emergingvoices/

Verse 1:
C                                          Am                      F
You can be the one that sees my heart with just a simple thought of who You are
C                                                  Am             F
Let Your light shine in the darkest parts let Your love fill the world
C                                          Am                    F
You can be the fire down in my soul that I can’t contain that I can’t control
C                                         Am             F
Would you fill me up to overflow let your love fill the world

Chorus:
        Am
And I belong to You
  F         C
Forever I belong to You
   Am
I belong to You
  F         C
Forever I belong to You

Verse 2:
C                                      Am                       F
Let your words be like a burning flame come in closer touch my heart again
C                                                           Am            F
The whole earth trembles at the sound of your name let your love fill the world
C                                   Am                   F
And all I want is more of You, Your breath is life Your word is truth
C                                            Am             F
Your glory here is bursting through let Your love fill the world


Enjoy :) I know i don't have the bridge
Suggest correction
Creating personal tab
Creating personal tab
You can edit any tab online and save it as your Personal.

You can edit, replace or remove any tab part or add personal notes – all changes will be seen only by you.

Personal tabs can be accessed anytime from any device, even offline.
Learn more »
comments
print report bad tab
3 comments total.
0 reply
blyles 10 Dec 24, 2012 05:20 AM

Great job these chords are accurate!

Here is the bridge:

F C G F Am F C
And you have set my heart on fire my love all my desires are only for you
F C G F Am F
And as your glory fills this place your love we will embrace its only for
C
you

0 reply
JayNo13 10 Apr 24, 2013 06:52 PM

awesome!
here's the riff:
E---------------------------------------------------------------------------|
A---------------------------------------------------------------------------|
D---------------------------------------------------------------------------|
G------------------5/7/9----------------------------------------------------|
B---1--------5--3-----------------------------------------------------------|
E------5--3-----------------------------------------------------------------|

E---------------------------------------------------------------------------|
A---------------------------------------------------------------------------|
D---------------------------------------------------------------------------|
G------------------5/7------------------------------------------------------|
B---1--------5--3-----------------------------------------------------------|
E------5--3-----------------------------------------------------------------|

0 reply
tobehlen 10 Aug 15, 2015 10:03 AM

F C G F Am F C
And you have set my heart on fire my love all my desires are only for you
F C G F Am F
And as your glory fills this place your love we will embrace its only for
C
you

guest
You may want to rate the tab now too:
select rating
Wanna post a correction for this tab? Suggest correction