Oops, an error
Loading. Please wait.

Reanimate Tab

114 views 1 this week
no commentswrite comment
1 2 3 4 5
please rate
add to favorites
launch autoscroll
font size
0
reset
how to read this tab
guitar tuner
Autoscroll
slow
fast
+/-
esc
set tempo
stop
Help us to improve Ultimate-Guitar.com Take our survey!
×
Author
Difficulty
intermediate
Standard tuning
No capo

Pretty simple picking pattern...

INTRO & VERSES

e|--------|--------|--------|--------|
B|2--2-2--|2--2-2--|0--0-0--|0--0-0--|
G|-3--3-3-|-3--3-3-|-3--3-3-|-3--3-3-|
D|--4----4|--4----4|--0----0|--0----0| (repeat throughout verses)
A|--------|--------|--------|--------|
E|--------|--------|--------|--------|

CHORUS
..I Cannot believe my eyes...
e|--------|--------|--------|--------|
B|2--2-2--|1--1-1--|2--2-2--|3--3-3--|
G|-2--2-2-|-1--1-1-|-3--3-3-|-3--3-3-|
D|--2----2|--1----1|--3----3|--3----3|
A|--------|--------|--------|--------|
E|--------|--------|--------|--------|

...I am...
e|--------|--------|
B|6--6-6--|4--4----|
G|-6--6-6-|-4------|
D|--6----6|--4-----|
A|--------|--------|
E|--------|--------|

...alive.
e|--------|--------|--------|--------|
B|2--2-2--|2--2-2--|0--0-0--|0--0-0--|
G|-3--3-3-|-3--3-3-|-3--3-3-|-3--3-3-|
D|--4----4|--4----4|--0----0|--0----0| (repeat throughout verses)
A|--------|--------|--------|--------|
E|--------|--------|--------|--------|

CHORUS

...alive, I survived...
e|--------|--------|--------|--------|
B|--------|--------|--------|--------|
G|4--4-4--|4--4-4--|6--6-6--|6--6-6--|
D|-6--6-6-|-6--6-6-|-8--8-8-|-8--8-8-|
A|--6----6|--6----6|--8----8|--8----8|

e|--------|--------|--------|--------|--------|--------|
B|6--6-6--|6--6-6--|2--2-2--|2--2-2--|4--4-4--|4-------|
G|-6--6-6-|-6--6-6-|-3--3-3-|-3--3-3-|-4--4-4-|--------|
D|--6----6|--6----6|--3----3|--3----3|--4----4|--------|
A|--------|--------|--------|--------|--------|--------|
E|--------|--------|--------|--------|--------|--------|

INTRO (once only)
CHORUS

That's it! Enjoy :)
Suggest correction
Give kudos to tab author, rate the tab!
1 2 3 4 5
comments
print report bad tab
guest
You may want to rate the tab now too:
select rating
Wanna post a correction for this tab? Suggest correction