Oops, an error
Loading. Please wait.

Greater Omaha bass

844 views 3 this week
no commentswrite comment
1 2 3 4 5
2 more votes to show rating
add to favorites
×
Save as Personal and add changes to this tab that will be seen only by you. Learn more ›
×
You can save this tab as Personal to edit and correct it or add notes. All changes will be seen only by you. Learn more »
launch autoscroll
font size
0
reset
guitar tuner
edit
Autoscroll
slow
fast
+/-
esc
set tempo
stop
Author
Difficulty
Artist : Desaparecidos
Song : Greater Omaha
Album : Read Music - Speak Spanish
Year : 2002

. = staccato
~ = let ring
/ = slide

Play it with Tons of distortion ;)

INTRO/VERSE

G:-------||-------------------------------|
D:-----.-||-----.-----------------------.-|
A:-55555-||-00000-------.-------.---55555-|
E:-------||---------00000---11111---------|


Well traffic is kind of bad; they're widening easy street to fit more S.U.V.s
they're planting baby trees to grow to shady peaks
G:-------------------------------|
D:-----.-----------------------.-|
A:-00000-------.-------.---55555-|
E:---------00000---11111---------|


a little shelter from the sun or the upper tax bracket
here on the cul-de-sac we are not giving back until the community repents
G:-------------------------------|
D:-----.-----------------------.-|
A:-00000-------.-------.---55555-|
E:---------00000---11111---------|


cause we can't afford to be generous
there are closing costs and a narrow margin
G:-------------------------------|
D:-----.-----------------------.-|
A:-00000-------.-------.---55555-|
E:---------00000---11111---------|


so go earn your degree and we'll take you out to lunch
you can work for us but you have to eat 'em all up
G:------------------------------------|
D:------------------------------------|
A:-00000x------------------55555\-/5\-|
E:---------00000X--11111x-------------|


CHORUS


one more mouthful and we will be happy then
G:--------------------------------------------------------|
D:--------------------------------------------------------|
A:-0-0-0-00-0-0-04-4-4-4474-0--------------2-2-2-22-2-2-2-|
E:---------------------------2-2-2-22-2-2-2---------------|


one more mouthful and we will be happy then
G:--------------------------------------------------------|
D:--------------------------------------------------------|
A:-0-0-0-00-0-0-04-4-4-4474-0--------------2-2-2-22-2-2-2-|
E:---------------------------2-2-2-22-2-2-2---------------|

VERSE


out West they are moving dirt to make a greater Omaha
another franchise sold so there are even more restaurants per capita
G:-------------------------------|
D:-----.-----------------------.-|
A:-00000-------.-------.---55555-|
E:---------00000---11111---------|


and they all have got a drive-thru
I mean who's got time to dine
although the floors are clean and the colour scheme it compliments me every time
G:-------------------------------|
D:-----.-----------------------.-|
A:-00000-------.-------.---55555-|
E:---------00000---11111---------|

so no one starves in this cattle town
the semis pass making squealing sounds
G:-------------------------------|
D:-----.-----------------------.-|
A:-00000-------.-------.---55555-|
E:---------00000---11111---------|


and its ALL U CAN EAT and they will NEVER GET ENOUGH
they'll be feeding us.. they'll be feeding on us
G:---
D:---
A:-0~
E:---

CHORUS


one more mouthful and we will be happy then
G:--------------------------------------------------------|
D:--------------------------------------------------------|
A:-0-0-0-00-0-0-04-4-4-4474-0--------------2-2-2-22-2-2-2-|
E:---------------------------2-2-2-22-2-2-2---------------|


one more mouthful and we will be happy then
G:--------------------------------------------------------|
D:--------------------------------------------------------|
A:-0-0-0-00-0-0-04-4-4-4474-0--------------2-2-2-22-2-222-|
E:---------------------------2-2-2-22-2-2-2---------------|

BREAKDOWN

all those golden fields - lovely empty space
they're building drug stores now until none remains
G:-----------------------------------------------------------------------|
D:-----------------------------------------------------------------------|
A:-5-5-5-5-5-5-5-7-7-7-7-7-7-7-7-9-9-9-9-9-9-9-9-12-12-12-12-12-12-12-12-|
E:-----------------------------------------------------------------------|

I have been driving for 100 blocks saw 50 Kum and Go's, 60 parking lots
G:-----------------------------------------------------------------------|
D:-----------------------------------------------------------------------|
A:-5-5-5-5-5-5-5-7-7-7-7-7-7-7-7-9-9-9-9-9-9-9-9-12-12-12-12-12-12-12-12-|
E:-----------------------------------------------------------------------|


						One more mouthful and I'm sure they will be happy then
G:--------------------------------------------------|
D:--------------------------------------------------|
A:-5~~~-7~~~-9~~~-0~~~-5~~~-7~~~-9~~~-0~~~\2~~-0~~~-| (In the CD bass don't play the last A note)
E:--------------------------------------------------|

G:---------------------|
D:-....-----------....-|
A:-0000-....-....-5555-|
E:------0000-1111------|

OUTRO

One more mouthful and I'm sure they will be happy then
G:--------------------------------------------------------|
D:--------------------------------------------------------|
A:-0-0-0-00-0-0-04-4-4-4474-0--------------2-2-2-22-2-2-2-|
E:---------------------------2-2-2-22-2-2-2---------------|


just one more just one more ONE MORE!
G:--------------------------------------------------------|
D:--------------------------------------------------------|
A:-0-0-0-00-0-0-04-4-4-4474-0--------------2-2-2-22-2-222-|
E:---------------------------2-2-2-22-2-2-2---------------|

just one more just one more ONE MORE!
G:----------------------------------------------------------------|
D:----------------------------------------------------------------|
A:-0-0-0-0-0-0-0-0-4-4-4-4-4-4-4-4-----------------2-2-2-2---2--2-|
E:---------------------------------2-2-2-2-2-2-2-2----------------|


G:-------|
D:-----.-|
A:-00000-
E:-------


if you wanna tell me how much I'm a jerk, here's my mail...sorry but I'm not good at 
: mapelletier89@hotmail.com

            
            
Suggest correction
Creating personal tab
Creating personal tab
You can edit any tab online and save it as your Personal.

You can edit, replace or remove any tab part or add personal notes – all changes will be seen only by you.

Personal tabs can be accessed anytime from any device, even offline.
Learn more »
Give kudos to tab author, rate the tab!
1 2 3 4 5
comments
print report bad tab
guest
You may want to rate the tab now too:
select rating
Wanna post a correction for this tab? Suggest correction