Oops, an error
Loading. Please wait.

Coffee Mug Tab

version 1
version 1

Whole song

Interactive

4,917 views 3 this week
2 commentsread comments
1 2 3 4 5
x 6
add to favorites
×
Save as Personal and add changes to this tab that will be seen only by you. Learn more ›
×
You can save this tab as Personal to edit and correct it or add notes. All changes will be seen only by you. Learn more »
save as personal
new!
launch autoscroll
font size
0
reset
how to read this tab
guitar tuner
Autoscroll
slow
fast
+/-
esc
set tempo
stop
Descendents - Coffee Mug
Submitted By: Chris
EMail: cwsmith@together.net
Album:Everything Sucks
Track:3
Instrument:Guitar

Note:This song is played really fucking fast.  Just do 
your best to keep up.

Intro:
            E5
e----------------------|
b----------------------|
g---9999999999999999---|
D---9999999999999999---|
A---7777777777777777---|
E----------------------|

Verse:
    E5  G5 D5 E5 G5 D5 E5 G5 D5 E5  G5 D5
e------------------------------------------|
b------------------------------------------|
g------------------------------------------|
D---222-55-7-222-55-7-222-55-7-222-555-7---|(x2)
A---222-55-7-222-55-7-222-55-7-222-555-7---|
E---000-33-5-000-33-5-000-33-5-000-333-5---|

Chorus:
     D5 G5 A5
e--------------|
b--------------|
g---7777-------|
D---7777-5-7---|(x4)
A---5555-5-7---|
E--------3-5---|

Verse x2

Chorus x4

Verse x2

That's it! Really quick song.  It's easy once you get
to be able to play it fast. Enjoy!
Suggest correction
comments
print report bad tab
2 comments total.
0 reply
Nero 20 Jul 11, 2010 04:12 PM

The end of your verse is wrong, it doesn't stay the same, it goes from high to low at the end.

+3 reply
Nero 20 Jul 11, 2010 04:16 PM

The verse should be:

Verse:
E5 G5 D5 E5 G5 D5 E5 G5 D5 E5 G5 D5
e------------------------------------------|
b------------------------------------------|
g------------------------------------------|
D---2222-5-7-2222-5-7-2222-5-7-8888-7-5----|(x2)
A---2222-5-7-2222-5-7-2222-5-7-8888-7-5----|
E---0000-3-5-0000-3-5-0000-3-5-6666-5-3----|


Also the song ends with the intro again.

guest
Wanna post a correction for this tab? Suggest correction