Oops, an error
Loading. Please wait.

Coolidge Tab

version 1
version 1

Solo

Whole song

Interactive

1,541 views 1 this week
2 commentsread comments
1 2 3 4 5
2 more votes to show rating
add to favorites
launch autoscroll
font size
0
reset
how to read this tab
guitar tuner
×
Best way to learn
"Coolidge"
Autoscroll
slow
fast
+/-
esc
set tempo
stop
Author
Song:coolidge(solo)
band:descendents
album:ALL!
awesome song

I dont think its right but it sounds good to me please tell me ur opinion

Vote!
b-bend up v-vibrato p-palm mute p=pull off h-hammer on
e|----------------------------10p810p810p810p810p8---------------------->
b|-8b10-8-5-8-5v----------5-8---------------------10p810p810p810p810p8-->
g|---------------------5-7--------------------------------------------9->
d|---------------pp-5-7 ------------------------------------------------>
a|---------------00----------------------------------------------------->
e|---------------00----------------------------------------------------->

e|------------10v-|
b|----------------|
g|--------5h7-----|
d|-pp--5h7--------|
a|-00-------------|
e|-00-------------|
Suggest correction
Give kudos to tab author, rate the tab!
1 2 3 4 5
comments
print report bad tab
2 comments total.
0 reply
kell1075 10 Jun 20, 2015 03:57 PM

This is the first part.

e|----------------------------------------------------------------------------->
b|----------------------------------------------------------------------------->
g|-9b-7-6-7-6h7-------------------------7--9-7--------------------------------->
d|-----------------------------7--7-9-7--7------------------------------------->
a|-------------------7-9-9-7-9--9---------------------------------------------->
E|-------------7-7-10---------------------------------------------------------->

0 reply
kell1075 10 Jun 20, 2015 04:12 PM

This is the 2nd part. 7th harmonic is the harmonic note directly over the fret (most of you who play will know what I'm talking about. Hope this helps!

e|-7-8-10-8-7h8---7---------------------------------------------7th harmonic---|
b|--------------10--10-8-7h8--7----------7----------------------7th harmonic---|
g|---------------------------9--9-8-8h9-9-9-9-8-----------------7th harmonic---|
d|-----------------------------------------------------------------------------|
a|----------------------------------------------------7-9-9-7-9----------------|
E|----------------------------------------------7-7-10-------------------------|

guest
You may want to rate the tab now too:
select rating
Wanna post a correction for this tab? Suggest correction