Oops, an error
Loading. Please wait.

Im Not A Loser Tab

version 2
version 2

Whole song

Interactive

9,523 views 9 this week
1 commentread comment
1 2 3 4 5
x 7
add to favorites
×
Save as Personal and add changes to this tab that will be seen only by you. Learn more ›
×
You can save this tab as Personal to edit and correct it or add notes. All changes will be seen only by you. Learn more »
save as personal
new!
launch autoscroll
font size
0
reset
how to read this tab
guitar tuner
Autoscroll
slow
fast
+/-
esc
set tempo
stop
Author
-------------------------------------------------------------------------------
                             I'm Not a Loser - Descendents
-------------------------------------------------------------------------------

Tabbed by: Jared Peterman
E-Mail: Ninja216@Comcast.Net
Tuning: Normal - EADGBe

  riff 1:

e |-------------------------------------------------------|
B |-------------------------------------------------------|
G |---6-6-6-6-7-7-7-7-9-9-9-9-7-7-7-7--6--7--9--7--6--7---|
D |---6-6-6-6-7-7-7-7-9-9-9-9-7-7-7-7--6--7--9--7--6--7---|
A |---4-4-4-4-5-5-5-5-7-7-7-7-5-5-5-5--4--5--7--5--4--5---|
E |-------------------------------------------------------|

  riff 2:

e |------------------------------------------------------|
B |------------------------------------------------------|
G |--------------7--4-4-4-4-4-4-4-4-4-4--6-6-6-6-9---6---|
D |---4--4---7---7--4-4-4-4-4-4-4-4-4-4--6-6-6-6-9---6---|
A |---4--4---7---5--2-2-2-2-2-2-2-2-2-2--4-4-4-4-7---4---|
E |---2--2---5-------------------------------------------|

  Very fast song, but it gets easy after a while.

If you have any questions, comments or corrections, just e-mail me.
Suggest correction
comments
print report bad tab
1 comment total.
+1 reply
SK Punk 51 Aug 24, 2010 01:37 PM

Good tab, but the end of riff one goes
e|-----------------------|
B|-----------------------|
G|--6--7--9--7--6--4--6--|
D|--6--7--9--7--6--4--6--|
A|--4--5--6--5--4--2--4--|
E|-----------------------|

guest
You may want to rate the tab now too:
select rating
Wanna post a correction for this tab? Suggest correction