Oops, an error
Loading. Please wait.

Impressions Tab

16 views 1 this week
no commentswrite comment
1 2 3 4 5
3 more votes to show rating
add to favorites
launch autoscroll
font size
0
reset
how to read this tab
guitar tuner
Autoscroll
slow
fast
+/-
esc
set tempo
stop
Help us to improve Ultimate-Guitar.com Take our survey!
×
Author
Difficulty
intermediate
#######################################
# Impressions by the Descendents      #
# Tabbed by ThunDeRheD                #
#######################################
             
   [Intro]

[Riff 1] (play 2 times)

e|--------------|
B|---0--0--0--0-|
G|--0--0--0--0--|
D|-2--0---------|
A|-------3--2---|
E|--------------|

[Riff 2] (play 2 times)

e|------------0-|
B|---0--0--0----|
G|--0--0--0--0--|
D|-2--0---------|
A|-------3--2---|
E|--------------|

[Riff 1] 

e|--------------|
B|---0--0--0--0-|
G|--0--0--0--0--|
D|-2--0---------|
A|-------3--2---|
E|--------------|


[Riff 3] (slow down)

e|-----------------|
B|----0-----0---0--|
G|---0-----0---0---|
D|-----------------|
A|-0---------------|
E|--------3---2----|

  [Verse]

[Riff 4] (play 2 times)

e|-----------|
B|-----------|
G|-----------|
D|--2-2----2-|
A|-----------|
E|-0------0--|

[Riff 5]
 
e|---------------------------------------|
B|---------------------------------------|
G|--4-2-0-----------0-----0--------------|
D|--------4-2-0-------1-----2-/4---------|
A|----------------2-----3-----/5---------|
E|-----------------------------------3-2-|

[Riff 6] (play 2 times)

e|----------------|
B|----------------|
G|-----------0----|
D|-----1h2p1---4--|
A|---2------------|
E|-0--------------|

[Riff 4] (play 2 times)

e|-----------|
B|-----------|
G|-----------|
D|--2-2----2-|
A|-----------|
E|-0------0--|

[Riff 5] 

e|---------------------------------------|
B|---------------------------------------|
G|--4-2-0-----------0-----0--------------|
D|--------4-2-0-------1-----2-/4---------|
A|----------------2-----3-----/5---------|
E|-----------------------------------3-2-|

[Riff 6] (play 4 times)

e|----------------|
B|----------------|
G|-----------0----|
D|-----1h2p1---4--|
A|---2------------|
E|-0--------------|

     [Bridge]

[Riff 7] (play 3 times)

e|---0-----------------|-0-1-0-------|
B|-1---1----0----------|-------3-1-0-|
G|--------3---3--1-----|-------------|
D|---------------------|-------------|
A|-0------4------2-----|-------------|
E|-------------------0-|-------------|


[Riff 8]

e|---0-----------------|-0-1-3-1-0-----------------|
B|-1---1----0----------|-----------3-1-0-----------|
G|--------3---3--1-----|-----------------0-2-1---1-|
D|---------------------|-----------------------4---|
A|-0------4------2-----|---------------------------|
E|-------------------0-|---------------------------|

    [Chorus]

[Riff 9] (play 3 times)

e|------0-----0--------0-----0-----------------|-0-1-0-----------|
B|------1-----1--------0-----0--------------0--|-------3-1-0-----|
G|-(2)--2-----2--------2-----2--------1-----1--|-------------2-1-|
D|--2---2---2-2----3---3---3-3--------2-----2--|-----------------|
A|--0-0-0-0-0-0----3-3-3-3-3-3----2---2---2-2--|-----------------|
E|--------------------------------0-0---0-0-0--|-----------------|
   PMPM  PMPM     PMPM  PMPM     PMPM  PMPM

[Riff 10]

e|------0-----0--------0-----0-----------------|-0-1-3-1-0-----------/8-7-5---------------------|
B|------1-----1--------0-----0--------------0--|-----------3-1---------------8-7-5-4h5p4---5--5-|
G|-(2)--2-----2--------2-----2--------1-----1--|---------------2-1-2----------------------------|
D|--2---2---2-2----3---3---3-3--------2-----2--|------------------------------------------------|
A|--0-0-0-0-0-0----3-3-3-3-3-3----2---2---2-2--|-----------------------------------2------------|
E|--------------------------------0-0---0-0-0--|------------------------------------------------|
   PMPM  PMPM     PMPM  PMPM     PMPM  PMPM

[Fill 1]

e|---------------------|
B|---------------------|
G|-----------------9---|
D|------2---6-8-9------|
A|---------------------|
E|-0----0--------------|
 

[Riff 9] (play 3 times)

e|------0-----0--------0-----0-----------------|-0-1-0-----------|
B|------1-----1--------0-----0--------------0--|-------3-1-0-----|
G|-(2)--2-----2--------2-----2--------1-----1--|-------------2-1-|
D|--2---2---2-2----3---3---3-3--------2-----2--|-----------------|
A|--0-0-0-0-0-0----3-3-3-3-3-3----2---2---2-2--|-----------------|
E|--------------------------------0-0---0-0-0--|-----------------|
   PMPM  PMPM     PMPM  PMPM     PMPM  PMPM

[Riff 10]

e|------0-----0--------0-----0-----------------|-0-1-3-1-0-----------/8-7-5---------------------|
B|------1-----1--------0-----0--------------0--|-----------3-1---------------8-7-5-4h5p4---5--5-|
G|-(2)--2-----2--------2-----2--------1-----1--|---------------2-1-2----------------------------|
D|--2---2---2-2----3---3---3-3--------2-----2--|------------------------------------------------|
A|--0-0-0-0-0-0----3-3-3-3-3-3----2---2---2-2--|-----------------------------------2------------|
E|--------------------------------0-0---0-0-0--|------------------------------------------------|
   PMPM  PMPM     PMPM  PMPM     PMPM  PMPM

[Fill 1]

e|---------------------|
B|---------------------|
G|-----------------9---|
D|------2---6-8-9------|
A|---------------------|
E|-0----0--------------|

************************************

| p   Pull-off
| h   Hammer-on
| /   Slide up
| PM  Palm mute

************************************
Suggest correction
Give kudos to tab author, rate the tab!
1 2 3 4 5
comments
print report bad tab
guest
You may want to rate the tab now too:
select rating
Wanna post a correction for this tab? Suggest correction