Oops, an error
Loading. Please wait.

Jean Is Dead Bass Tab

version 2
version 2

Whole song

369 views 9 this week
no commentswrite comment
1 2 3 4 5
please rate
add to favorites
launch autoscroll
font size
0
reset
guitar tuner
Tab Pro tools
  • play this tab
  • loop segment
  • change instrument
  • show fretboard
  • metronome
Autoscroll
slow
fast
+/-
esc
set tempo
stop
Contributor
-------------------------------------------------------------------------------
                             JEAN IS DEAD - Descendents
-------------------------------------------------------------------------------
Tabbed by: Vet250rdr

Tuning:standard

G|--------------------------------|--------------------------------|
D|-5-5-5-5-5-5-5-5-7-5-4----------|-5-5-5-5-5-5-5-5-7-5-4----5-4---|
A|-----------------------5--5-5-5-|-----------------------5------5-|
E|--------------------------------|--------------------------------|

G|-----------------|-----------------|-----------------|-----------------|
D|-----------------|-----------------|-----------------|-----------------|
A|-2-2-2-2-2-0-5-7-|-2-2-2-2-2-0-5-7-|-2-2-2-2-2-0-5-7-|-2-2-2-2-2-0-5-7-|
E|-----------------|-----------------|-----------------|-----------------|

G|-----------------|-----------------|-----------------|-----------------|
D|-----------------|-----------------|-4-4-4-4-4-4-----|-4-4-4-4-4-4-4-4-|
A|-4-4-4-4-4-4-2-4-|-4-4-4-4-4-4-2-4-|-------------2-4-|-----------------|
E|-----------------|-----------------|-----------------|-----------------|

G|--------------------------5-4---|--------------------------5-4---|
D|-5---5-5---5-5-5-7-5-4--------7-|-5---5-5---5-5-5-7-5-4--------7-|
A|-----------------------5--------|-----------------------5--------|
E|--------------------------------|--------------------------------|

G|--------------------------5-4---|-------------------------------|
D|-5---5-5---5-5-5-7-5-4--------7-|-5---5-5---5-5-5-7-5-4----5-4--|
A|-----------------------5--------|-----------------------5------5|
E|--------------------------------|-------------------------------|

G|-------------------------------------------------------------------|
D|-----------------------------------5-5-5-5-5-5-5-5-----------------|
A|-7-7-7-7-7-7-7-7--7-7-7-7--7-7-7-7-----------------5-5-5-5-5-5-5-5-|
E|-------------------------------------------------------------------|

G|-------------------------------------------------------------------|
D|-----------------------------------5-5-5-5-5-5-5-5-----------------|
A|-7-7-7-7-7-7-7-7--7-7-7-7--7-7-7-7-----------------5-5-5-5-5-5-5-5-|
E|-------------------------------------------------------------------|

G|-----------------|-----------------|-----------------|-----------------|
D|-----------------|-----------------|-4-4-4-4-4-4-----|-4-4-4-4-4-4-4-4-|
A|-4-4-4-4-4-4-2-4-|-4-4-4-4-4-4-2-4-|-------------2-4-|-----------------|
E|-----------------|-----------------|-----------------|-----------------|

G|--------------------------5-4---|--------------------------5-4---|
D|-5---5-5---5-5-5-7-5-4--------7-|-5---5-5---5-5-5-7-5-4--------7-|
A|-----------------------5--------|-----------------------5--------|
E|--------------------------------|--------------------------------|

G|--------------------------5-4---|-------------------------------|
D|-5---5-5---5-5-5-7-5-4--------7-|-5---5-5---5-5-5-7-5-4----5-4--|
A|-----------------------5--------|-----------------------5------5|
E|--------------------------------|-------------------------------|


G|-------------------------------------------------------------------|
D|-----------------------------------5-5-5-5-5-5-5-5-----------------|
A|-7-7-7-7-7-7-7-7--7-7-7-7--7-7-7-7-----------------5-5-5-5-5-5-5-5-|
E|-------------------------------------------------------------------|

G|-------------------------------------------------------------------|
D|-----------------------------------5-5-5-5-5-5-5-5-----------------|
A|-7-7-7-7-7-7-7-7--7-7-7-7--7-7-7-7-----------------5-5-5-5-5-5-5-5-|
E|-------------------------------------------------------------------|

G|-------------------------------------------------------------------|
D|-----------------------------------5-5-5-5-5-5-5-5-----------------|
A|-7-7-7-7-7-7-7-7--7-7-7-7--7-7-7-7-----------------5-5-5-5-5-5-5-5-|
E|-------------------------------------------------------------------|

G|-------------------------------------------------------------------|
D|-----------------------------------5-5-5-5-5-5-5-5-----------------|
A|-7-7-7-7-7-7-7-7--7-7-7-7--7-7-7-7-----------------5-5-5-5-5-5-5-5-|
E|-------------------------------------------------------------------|


G|-----------------|-----------------|-----------------|-----------------|
D|-----------------|-----------------|-4-4-4-4-4-4-----|-4-4-4-4-4-4-4-4-|
A|-4-4-4-4-4-4-2-4-|-4-4-4-4-4-4-2-4-|-------------2-4-|-----------------|
E|-----------------|-----------------|-----------------|-----------------|

G|-------|
D|-4-----|
A|-2-----|
E|-------|

| /  slide up
| \  slide down
| h  hammer-on
| p  pull-off
| ~  vibrato
| +  harmonic
| x  Mute note
===============================================================================
comments
We did not receive enough feedback on this tab! Please rate:
print report bad tab
1 2 3 4 5
I want to post or [tab]
guest
You may want to rate the tab now too:
select rating
Please do not post tabs as comments. Select "correction" instead!