Oops, an error
Loading. Please wait.

Nothing With You Bass Tab

version 1
version 1

Whole song

Interactive

3,570 views 3 this week
2 commentsread comments
1 2 3 4 5
1 last vote to show rating
add to favorites
launch autoscroll
font size
0
reset
guitar tuner
Autoscroll
slow
fast
+/-
esc
set tempo
stop
Help us to improve Ultimate-Guitar.com Take our survey!
×
Author
Difficulty
novice
Nothing With You
Descendents
Cool To Be You

Standard

Intro
|---------------------------------------------------------------|
|---------------------------------------------------------------|
|-3--3-3--3-3-3-3-3-3-3-3-3-3-3---------------------------------|
|-------------------------------3-3-3-3-3-3-3-3-3-3-3-3-3-3-3-3-|

Verse
|--------------------------------------------------------------------------------|
|-------------0--------------0---------0-2------------2-4-5--5--5-------44-------|
|---------2h3----2-2-2-2-2h3---3-3-3-3------5-5-5-5-5-------------5-3-2----2-2-2-|
|-3-3-3-3------------------------------------------------------------------------|

---------------------------------|
---------5-4-5--7-7-7------------|
-3-3-3-3--------------5-5-7-5----|
---------------------------------|x2


PreChorus
|-----------------------------------|
|-----2-4-5-5-4-2-0-0-4-4-5-5-4-----|
|-3-3---------------------------5---|
|-----------------------------------|x2

|-----------------------------------------------------------------|
|-----2-4-5-5-4-2-------------------------------------------------|
|-3-3-------------5-5-5-5-5-5-5-5-3-3-3-3-3-3-3-3-3-3-3-3-3-3-3-3-|
|-----------------------------------------------------------------|


Chorus
|------------------------------------------------------------|
|-5-5-5-5-5-----------------4---------------------------7----|
|-----------7-5---5-5-5-5-5---5---3-3-3-3-3-3-3-3-3-3-3----9-|
|---------------7---------------7----------------------------|x2

|--------------------------|
|--------------------------|
|-3--3-3--3-3-3-3-3-3/12\3-|
|--------------------------|

Verse x2

PreChorus

Chorus over and over (fades out)
|------------------------------------------------------------|
|-5-5-5-5-5-----------------4---------------------------7----|
|-----------7-5---5-5-5-5-5---5---3-3-3-3-3-3-3-3-3-3-3----9-|
|---------------7---------------7----------------------------|

                                           variation on ending
|---------------------------------------------------------------|
|-5-5-5-5-5-----------------4------------------------------2-4--|
|-----------7-5---5-5-5-5-5---5---3-3-3-3-3-3-3-3-3-3-3-3-------|
|---------------7---------------7-------------------------------|
Suggest correction
Give kudos to tab author, rate the tab!
1 2 3 4 5
comments
print report bad tab
2 comments total.
0 reply
Derrikb 422 Jun 24, 2008 11:06 AM

chorus riff should be this instead. its the same but its easier.
----------------------------
-----------------------7--4-
-3-3-3-3-3-3-3-3-3-3-3------
----------------------------

0 reply
Derrikb 422 Jun 24, 2008 11:13 AM

also the intro/outro and in between verses should be this this
----------------------
---9-10-10(7)---------
-8---------10-10-0----
---------------------
mt bad

guest
You may want to rate the tab now too:
select rating
Wanna post a correction for this tab? Suggest correction