Oops, an error
Loading. Please wait.

On Paper bass

208 views 3 this week
no commentswrite comment
1 2 3 4 5
3 more votes to show rating
add to favorites
×
Save as Personal and add changes to this tab that will be seen only by you. Learn more ›
×
You can save this tab as Personal to edit and correct it or add notes. All changes will be seen only by you. Learn more »
launch autoscroll
font size
0
reset
guitar tuner
edit
Autoscroll
slow
fast
+/-
esc
set tempo
stop
Author
Difficulty
THE DESCENDENTS - ON PAPER
From the album Hypercaffium Spazzinate (2016)


Intro
-----

    E   E  E  E  E  E  E  E  E   E  E  E  E  E  E  E  E     E  E  Q    E  E  E  E     E  E  E  E  E  E  E  E
G||---|------------------------|-------------------------|-------------------------|-------------------------|
D||---|------------------------|-------------------------|-------------------------|-------------------------|
A||-4-|-L-----2--x--2--------4-|-L-----2--x--2--------9--|--L-----7----7--7--6-----|--6--6-----------------4-|
E||---|----4-----------4--2----|----4-----------4--2-----|-----9----------------9--|--------9--7--9--7--6----|

     E  E  E  E  E  E  E  E     E  E  E  E  E  E  E  E     E  E  Q    E  E  E  E     E  E  E  E   E  E  E  E
G||--------------------------|--------------------------|-------------------------|--------------------------|
D||--------------------------|--------------------------|-------------------------|--------------11----------|
A||--L-----2--x--2--------4--|--L-----2--x--2--------9--|--L-----7----7--7--6-----|--6--7------------9-----7-|
E||-----4-----------4--2-----|-----4-----------4--2-----|-----9----------------9--|--------9--7---------9----|


Verse 1
-------

     E  E  E  E  E  E  E  E     E  E  E  E  E  E  E  E     E  E  E  E  E  E  E  E     E  E  E  E  E  E  E  E
G||--------------------------|--------------------------|--------------------------|-------------------------|
D||--------------------------|--6--6--6--6--6-----------|-----------------------6--|-------------------------|
A||--------------------------|-----------------9--7--6--|-----------------6--7-----|--9--9--9--9--9--9--9--9-|
E||--7--7--7--7--7--7--7--7--|--------------------------|--9--9--9--9--9-----------|-------------------------|

     Q    Q    Q    Q       Q    Q    Q    Q       E  E  Q    E  E  E  E     E  E  Q    Q    Q
G||----------------------|----------------------|-------------------------|-----------------------|
D||-------6--------------|----------------------|-------------------------|-----------------------|
A||--7---------9----7----|--6-------------------|----------------------6--|--L-----4--------------|
E||----------------------|-------6----4----4----|--0--0--2----4--7--4-----|-----6-------0----x----|

     E  E  E  E  E  E  E  E     E  E  E  E  E  E  E  E     E  E  E  E  E  E  E  E     E  E  E  E  E  E  E  E
G||--------------------------|--------------------------|--------------------------|-------------------------|
D||--------------------------|--6--6--6--6--6-----------|-----------------------6--|-------------------------|
A||--------------------------|-----------------9--7--6--|-----------------6--7-----|--9--9--9--9--9--9--9--9-|
E||--7--7--7--7--7--7--7--7--|--------------------------|--9--9--9--9--9-----------|-------------------------|

     Q    Q    Q    Q       Q    Q    Q    Q       E  E  Q    Q    E  E
G||----------------------|----------------------|------------------------|
D||-------6--------------|----------------------|------------------------|
A||--7---------9----7----|--6-------------------|-------------6-------4--|
E||----------------------|-------6----4----4----|--0--0--4---------6-----|


Bridge
------

     E  E  E  E  E  E  E  E     E  E  E  E  E  E  E  E     E  E  Q    E  E  E  E     E  E  E  E   E  E  E  E
G||--------------------------|--------------------------|-------------------------|--------------------------|
D||--------------------------|--------------------------|-------------------------|--------------11----------|
A||--L-----2--x--2--------4--|--L-----2--x--2--------9--|--L-----7----7--7--6-----|--6--7------------9-----7-|
E||-----4-----------4--2-----|-----4-----------4--2-----|-----9----------------9--|--------9--7---------9----|


Verse 2
-------

     E  E  E  E  E  E  E  E     E  E  E  E  E  E  E  E     E  E  E  E  E  E  E  E     E  E  E  E  E  E  E  E
G||--------------------------|--------------------------|--------------------------|-------------------------|
D||--------------------------|--6--6--6--6--6-----------|-----------------------6--|-------------------------|
A||--------------------------|-----------------9--7--6--|-----------------6--7-----|--9--9--9--9--9--9--9--9-|
E||--7--7--7--7--7--7--7--7--|--------------------------|--9--9--9--9--9-----------|-------------------------|

     Q    Q    Q    Q       Q    Q    Q    Q       E  E  Q    E  E  E  E     E  E  Q    Q    Q
G||----------------------|----------------------|-------------------------|-----------------------|
D||-------6--------------|----------------------|-------------------------|-----------------------|
A||--7---------9----7----|--6-------------------|----------------------6--|--L-----4--------------|
E||----------------------|-------6----4----4----|--0--0--2----4--7--4-----|-----6-------0----x----|

     E  E  E  E  E  E  E  E     E  E  E  E  E  E  E  E     E  E  E  E  E  E  E  E     E  E  E  E  E  E  E  E
G||--------------------------|--------------------------|--------------------------|-------------------------|
D||--------------------------|--6--6--6--6--6-----------|-----------------------6--|-------------------------|
A||--------------------------|-----------------9--7--6--|-----------------6--7-----|--9--9--9--9--9--9--9--9-|
E||--7--7--7--7--7--7--7--7--|--------------------------|--9--9--9--9--9-----------|-------------------------|

     Q    Q    Q    Q       Q    Q    Q    Q       E  E  Q    Q    E  E     E  E  E  E  Q    Q
G||----------------------|----------------------|------------------------|------------------------|
D||-------6--------------|----------------------|------------------------|------------------------|
A||--7---------9----7----|--6-------------------|-------------6-------4--|--L-----2--x--2----x----|
E||----------------------|-------6----4----4----|--0--0--4---------6-----|-----4------------------|


Break
-----

     Q    Q    Q    Q       Q    Q    Q    Q       Q    Q    Q    Q       Q    Q    Q    Q
G||----------------------|----------------------|----------------------|----------------------|
D||--8----6--------------|----------------------|----------------------|----------------------|
A||------------9----7----|--6-------------------|--9----7----6---------|--7----6--------------|
E||----------------------|-------9----7----6----|-----------------9----|------------9----7----|

     Q    Q    Q    Q       Q    Q    Q    Q       E  E  Q    Q    E  E
G||----------------------|----------------------|------------------------|
D||----------------------|----------------------|------------------------|
A||-----------------6----|-------6----7---------|-------------6-------4--|
E||--4----6----7---------|--9--------------9----|--0--0--4---------6-----|


Bridge
------

     E  E  E  E  E  E  E  E     E  E  E  E  E  E  E  E     E  E  Q    E  E  E  E     E  E  E  E  E  E  E  E
G||--------------------------|--------------------------|-------------------------|--------------------------|
D||--------------------------|--------------------------|-------------9--9--8--6--|--8--8--6--4--6--4--------|
A||--L-----2--x--2--------4--|--L-----2--x--2--------9--|--L-----7----------------|--------------------6--4--|
E||-----4-----------4--2-----|-----4-----------4--2-----|-----9-------------------|--------------------------|

     E  E  E  E  E  E  E  E     E  E  E  E  E  E  E  E    E  E  Q    E  E  E  E     E  E  E  E  E  E  Q
G||--------------------------|--------------------------|------------9--9--8--6--|--8--8--6-----6--------|
D||--------------------------|--------------------------|------------------------|-----------9-----9--8--|
A||--L-----2--x--2--------4--|--L-----2--x--2--------9--|-L-----7----------------|-----------------------|
E||-----4-----------4--2-----|-----4-----------4--2-----|----9-------------------|-----------------------|


Verse 3
-------

     Q    H.
G||----------------------|----------------------|------------------------|------------------------|
D||----------------------|----------------------|------------------------|------------------------|
A||----------------------|----------------------|------------------------|------------------------|
E||--7-------------------|----------------------|------------------------|------------------------|

     Q    Q    Q    Q       Q    Q    Q    Q       E  E  Q    Q    E  E
G||----------------------|----------------------|------------------------|
D||-------6--------------|----------------------|------------------------|
A||--7---------9----7----|--6-------------------|-------------6-------4--|
E||----------------------|-------6----4----4----|--0--0--4---------6-----|


Outro
-----

     E  E  E  E  Q    Q       E  E  Q    Q    E  E     E  E  E  E  Q    Q       Q    Q    Q    E  E
G||------------------------|------------------------|------------------------|-----------------------|
D||------------------------|------------------------|------------------------|-----------------------|
A||--L-----2--x--2----x----|-------------6-------4--|--L-----2--x--2----x----|--7----8----9----9--9--|
E||-----4------------------|--0--0--4---------6-----|-----4------------------|-----------------------|

     E  E  E  E  E  E  E  E     E  E  E  E  E  E  E  E     E  E  E  E  E  E  E  E     E  E  Q    E  E  E  E
G||--------------------------|--------------------------|--------------------------|-------------------------|
D||--------------------------|--------------------------|--------------------------|-------------------------|
A||--9--9--9--9--9--9--9--4--|--L-----2--x--2--------4--|--L-----2--x--2--------9--|--L-----7----7--7--6-----|
E||--------------------------|-----4-----------4--2-----|-----4-----------4--2-----|-----9----------------9--|

     E  E  E  E  E  E  E  E     E  E  E  E  E  E  E  E     E  E  E  E  E  E  E  E     E  E  Q    E  E  E  E
G||--------------------------|--------------------------|--------------------------|-------------------------|
D||--------------------------|--------------------------|--------------------------|-------------------------|
A||--6--6-----------------4--|--L-----2--x--2--------4--|--L-----2--x--2--------9--|--L-----7----7--6--7--9--|
E||--------9--7--9--7--6-----|-----4-----------4--2-----|-----4-----------4--2-----|-----9-------------------|

     E  E  E  E  E  E  E  E     W
G||-----------------------6--|-----||
D||--6-----6--8--9--8--9-----|--9--||
A||-----9--------------------|-----||
E||--------------------------|-----||


Duration Legend
---------------
W - whole
H - half
Q - quarter
E - 8th


Tablature Legend
----------------
L - tied note

            
            
Suggest correction
Creating personal tab
Creating personal tab
You can edit any tab online and save it as your Personal.

You can edit, replace or remove any tab part or add personal notes – all changes will be seen only by you.

Personal tabs can be accessed anytime from any device, even offline.
Learn more »
Give kudos to tab author, rate the tab!
1 2 3 4 5
comments
print report bad tab
guest
You may want to rate the tab now too:
select rating
Wanna post a correction for this tab? Suggest correction