Oops, an error
Loading. Please wait.

Pervert Tab

version 1
version 1

Whole song

6,701 views 24 this week
1 commentread comment
1 2 3 4 5
x 8
add to favorites
launch autoscroll
font size
0
reset
how to read this tab
guitar tuner
×
Best way to learn
"Pervert"
Autoscroll
slow
fast
+/-
esc
set tempo
stop
Tuning
E A D G B E
Band: Descendents
Song: Pervert
Album: I Don't Want To Grow Up

It's amazing no one has tabbed this song yet..

Intro:

E|--------------------------------------------|
B|--------------------------------------------|
G|--77777777--1212121212121212-------10-------|
D|--77777777--1212121212121212--888--10--10~--|
A|--55555555--1010101010101010--888---8--10---|
E|------------------------------666-------8---|

Verse:

(Don't you think...)
E|------------------(3x)---------------------|
B|-------------------------------------------|
G|--77777777--1212121212121212-------10------|
D|--77777777--1212121212121212--888--10--10--|
A|--55555555--1010101010101010--888---8--10--|
E|------------------------------666-------8--|

(I want to...)
E|---------------------------------------------------------|
B|---------------------------------------------------------|
G|--77777777--1212121212121212-------10------12--12121312--|
D|--77777777--1212121212121212--888--10--10--12--12121312--|
A|--55555555--1010101010101010--888---8--10--10--10101110--|
E|------------------------------666-------8----------------|

E|----------------------------|
B|----------------------------|
G|--121212121212121212121212--|
D|--121212121212121212121212--|
A|--101010101010101010101010--|
E|----------------------------|

(I like to go...)
E|------------------(2x)--------------------|
B|------------------------------------------|
G|--88888888--55555555--77777777------------|
D|--88888888--55555555--77777777--55555555--|
A|--66666666--33333333--55555555--55555555--|
E|--------------------------------33333333--|

(Then when I leave...)
E|------------------------|
B|------------------------|
G|--3-33-5-3--5-3--7-5-3--|
D|--3-33-5-3--5-3--7-5-3--|
A|--1-11-3-1--3-1--5-3-1--|
E|------------------------|

(Then you know...)
E|------------------(2x)----------|
B|--------------------------------|
G|------------88888888------------|
D|--33333333--88888888--88888888--|
A|--33333333--66666666--88888888--|
E|--11111111------------66666666--|

 (Want it all of the time...)
E|-------------------------|
B|-------------------------|
G|--10-10------------------|
D|--10-10--7777--88888888--|
A|---8--8--7777--88888888--|
E|---------5555--66666666--|

Then repeat and enjoy!
Suggest correction
comments
print report bad tab
1 comment total.
0 reply
BrianCress 35 Jan 26, 2017 05:13 PM

Want it all of the time

E|-----------------------|
B|-----------------------|
G|--10-10----------------|
D|--10-10---7777-88888888|
A|---8--8---7777-88888888|
E|----------5555-66666666|

guest
You may want to rate the tab now too:
select rating
Wanna post a correction for this tab? Suggest correction