Oops, an error
Loading. Please wait.

Silly Girl bass

version 1
version 1

Whole song

Interactive

3,920 views 6 this week
no commentswrite comment
1 2 3 4 5
1 last vote to show rating
add to favorites
×
Save as Personal and add changes to this tab that will be seen only by you. Learn more ›
×
You can save this tab as Personal to edit and correct it or add notes. All changes will be seen only by you. Learn more »
launch autoscroll
font size
0
reset
guitar tuner
backing track
0:00
0:00
edit
Autoscroll
slow
fast
+/-
esc
set tempo
stop
Author
Song:Silly Girl
Artist:Descendents
Album:I Don't Want To Grow Up
Year:1985

Tuning:Standard

[~ = let ring]

Intro:(0:00-0:09)
G|-------------------------------------------------------------------|
D|-------------------------------------------------------------------|
A|-----------------3333333333333333----------------3333333333333333--|
E|-3333333333333333----------------3333333333333333------------------|

Verse:(0:10-0:19)
G|-------------------------------------------------------------------|
D|-------------------------------------------------------------------|
A|-----------------3333333333333333----------------3333333333333333--|
E|-3333333333333333----------------3333333333333333------------------|

Chorus:(0:20-0:30)
G|----------------------------------------------------------------|
D|----------------------------------------------------------------|
A|-2-5-2~-3-5-3~-5555555555555555-2-5-2~-3-5-3~-------------------|
E|---------------------------------------------3333333333333333---|

Verse 2:(0:31-0:40)
G|-------------------------------------------------------------------|
D|-------------------------------------------------------------------|
A|-----------------3333333333333333----------------3333333333333333--|
E|-3333333333333333----------------3333333333333333------------------|

Chorus 2:(0:41-0:50)
G|---------------------------------------------------------------|
D|---------------------------------------------------------------|
A|-2-5-2~-3-5-3~-5555555555555555-2-5-2~-3-5-3~------------------|
E|---------------------------------------------3333333333333333--|

Bridge(A.K.A The Intro):(0:51-1:11)
G|-------------------------------------------------------------------|
D|-------------------------------------------------------------------|
A|-----------------3333333333333333----------------3333333333333333--|x2
E|-3333333333333333----------------3333333333333333------------------| 

Verse 3:(1:12-1:21)
G|-------------------------------------------------------------------|
D|-------------------------------------------------------------------|
A|-----------------3333333333333333----------------3333333333333333--|
E|-3333333333333333----------------3333333333333333------------------|

Chorus 3:(1:22-1:32)
G|---------------------------------------------------------------|
D|---------------------------------------------------------------|
A|-2-5-2~-3-5-3~-5555555555555555-2-5-2~-3-5-3~------------------|
E|---------------------------------------------3333333333333333--|

Verse 4:(1:33-1:42)
G|-------------------------------------------------------------------|
D|-------------------------------------------------------------------|
A|-----------------3333333333333333----------------3333333333333333--|
E|-3333333333333333----------------3333333333333333------------------|

Chorus 4:(1:43-1:52)
G|---------------------------------------------------------------|
D|---------------------------------------------------------------|
A|-2-5-2~-3-5-3~-5555555555555555-2-5-2~-3-5-3~------------------|
E|---------------------------------------------3333333333333333--|

Outro(A.k.A The Intro):(1:53-2:22)
G|-------------------------------------------------------------------|
D|-------------------------------------------------------------------|
A|-----------------3333333333333333----------------3333333333333333--|x2
E|-3333333333333333----------------3333333333333333------------------|

End On:
G|----|
D|----|
A|----|
E|-5~-|

Ok that's it. Pretty Easy huh? Just follow the beat of the song and your set to play.

            
            
Suggest correction
Creating personal tab
Creating personal tab
You can edit any tab online and save it as your Personal.

You can edit, replace or remove any tab part or add personal notes – all changes will be seen only by you.

Personal tabs can be accessed anytime from any device, even offline.
Learn more »
Give kudos to tab author, rate the tab!
1 2 3 4 5
comments
print report bad tab
guest
You may want to rate the tab now too:
select rating
Wanna post a correction for this tab? Suggest correction