Oops, an error
Loading. Please wait.

Spineless And Scarlet Red Tab

103 views 1 this week
no commentswrite comment
1 2 3 4 5
3 more votes to show rating
add to favorites
launch autoscroll
font size
0
reset
how to read this tab
guitar tuner
Autoscroll
slow
fast
+/-
esc
set tempo
stop
Help us to improve Ultimate-Guitar.com Take our survey!
×
Author
Difficulty
sashki [tm] 2,364
novice
DESCENDENTS
"Spineless and Scarlet Red"
From the album "Hypercaffium Spazzinate" (2016)

Standard Tuning
Tempo = 189 bpm

[Intro]
e|---------------|-------------------|-----------------|--------------------|
B|-0--0-0-0-0--0-|-(0)-0-0-0-0-0-0-0-|--0--0---0--0--0-|-(0)-0-0-0-0-0-0-0--|
G|-4--4-4-6-7--2-|-(2)-2-2-2-2-2-2-2-|-11-12--11--9--6-|-(6)-6-6-6-6-6-6-6--|
D|---------------|-------------------|-----------------|--------------------|
A|---------------|-------------------|-----------------|--------------------|
E|---------------|-------------------|-----------------|--------------------|


e|----------------|-----------------------|-----------------|-------------------|
B|-0--0-0-0-0---0-|--(0)--0--0--0---0--0--|--0--0---0--0--0-|-(0)-0-0-0-0-0-0-0-|
G|-4--4-4-6-7--14-|-(14)-14-14-11--11-11--|-11-12--11--9--6-|-(6)-6-6-6-6-6-6-6-|
D|----------------|-----------------------|-----------------|-------------------|
A|----------------|-----------------------|-----------------|-------------------|
E|----------------|-----------------------|-----------------|-------------------|


[Verse 1]
   PM------------------------------|
e|-----------------|-----------------|-----------------|------------------|
B|-----------------|-----------------|-----------------|------------------|
G|-----------------|-----------------|-4-4-4-4-------7-|-(7)-7-7----------|
D|-4-4-4-4---------|-7-7-7-7---------|-4-4-4-4-4-4-4-7-|-(7)-7-7-7--7-7-7-|
A|-2-2-2-2-4-4-4-4-|-5-5-5-5-7-7-7-7-|-2-2-2-2-4-4-4-5-|-(5)-5-5-7--7-7-7-|
E|---------2-2-2-2-|---------5-5-5-5-|---------2-2-2---|---------5--5-5-5-|


   PM------------------------------|
e|-----------------|-----------------|-----------------|----------------------|
B|-----------------|-----------------|-----------------|---------10--10-10-10-|
G|-----------------|-----------------|-4-4-4-4-4-4-4-7-|-(7)-7-7-11--11-11-11-|
D|-4-4-4-4---------|-7-7-7-7---------|-4-4-4-4-4-4-4-7-|-(7)-7-7-11--11-11-11-|
A|-2-2-2-2-4-4-4-4-|-5-5-5-5-7-7-7-7-|-2-2-2-2-2-2-2-5-|-(5)-5-5--9---9--9--9-|
E|---------2-2-2-2-|---------5-5-5-5-|-----------------|----------------------|


   PM------------------------------|
e|-----------------|-----------------|-----------------|------------------|
B|-----------------|-----------------|-----------------|------------------|
G|-----------------|-----------------|-4-4-4-4-------7-|-(7)-7-7----------|
D|-4-4-4-4---------|-7-7-7-7---------|-4-4-4-4-4-4-4-7-|-(7)-7-7-7--7-7-7-|
A|-2-2-2-2-4-4-4-4-|-5-5-5-5-7-7-7-7-|-2-2-2-2-4-4-4-5-|-(5)-5-5-7--7-7-7-|
E|---------2-2-2-2-|---------5-5-5-5-|---------2-2-2---|---------5--5-5-5-|


e|----------|-----------------|---------------|-----------------|
B|----------|-----------------|---------------|-----------------|
G|-4--------|-(4)----(4)-11---|-4--4-6-6--6-7-|-7--7-9-9-11-11--|
D|----------|-----------------|---------------|-----------------|
A|-2--------|-(2)----(2)--9---|-2--2-4-4--4-5-|-5--5-7-7--9--9--|
E|----------|-----------------|---------------|-----------------|


[Pre-Chorus]
e|----------------|----------------|-----------------|-----------------|
B|----------------|----------------|-----------------|-----------------|
G|----------------|----------------|-4-4-4-4-4-4-4-4-|-2-2-2-2-2-2-2-2-|
D|-5--5-5-5-5-5-5-|-5--5-5-5-5-5-5-|-4-4-4-4-4-4-4-4-|-4-4-4-4-4-4-4-4-|
A|-5--5-5-5-5-5-5-|-5--5-5-5-5-5-5-|-2-2-2-2-2-2-2-2-|-4-4-4-4-4-4-4-4-|
E|-3--3-3-3-3-3-3-|-3--3-3-3-3-3-3-|-----------------|-2-2-2-2-2-2-2-2-|


   PM----------|
e|-----------------|-----------------|------------------|-----------------------|
B|-----------------|-----------------|---------------10-|-(10)-10-10-10--10-10--|
G|-----------------|-----------------|-4-4-4-4-4-4-4-11-|-(11)-11-11-11--11-11--|
D|---------------5-|-5-5-5-5-5-5-5-5-|-4-4-4-4-4-4-4-11-|-(11)-11-11-11--11-11--|
A|-5-5-5-5-5-5-5-5-|-5-5-5-5-5-5-5-5-|-2-2-2-2-2-2-2--9-|--(9)--9--9--9---9--9--|
E|-3-3-3-3-3-3-3-3-|-3-3-3-3-3-3-3-3-|------------------|-----------------------|


      PM------|
e|----------------|-------------------|-----------------|-----------------|
B|----------------|-------------------|-----------------|-----------------|
G|----------------|-------------------|-4-4-4-4-4-4-4-4-|-2-2-2-2-2-2-2-2-|
D|-5------------5-|-(5)-5-5-5-5-5-5-5-|-4-4-4-4-4-4-4-4-|-4-4-4-4-4-4-4-4-|
A|-5--5-5-5-5-5-5-|-(5)-5-5-5-5-5-5-5-|-2-2-2-2-2-2-2-2-|-4-4-4-4-4-4-4-4-|
E|-3--3-3-3-3-3-3-|-(3)-3-3-3-3-3-3-3-|-----------------|-2-2-2-2-2-2-2-2-|


   PM------------------------------|
e|-----------------|-----------------|-----------------|-----------------|
B|-----------------|-----------------|-----------------|-----------------|
G|-----------------|-----------------|-----------------|-----------------|
D|-----------------|-----------------|-7-7-7-7-7-7-7-7-|-7-7-7-7-7-7-7-7-|
A|-5-5-5-5-5-5-5-5-|-5-5-5-5-5-5-5-5-|-7-7-7-7-7-7-7-7-|-7-7-7-7-7-7-7-7-|
E|-3-3-3-3-3-3-3-3-|-3-3-3-3-3-3-3-3-|-5-5-5-5-5-5-5-5-|-5-5-5-5-5-5-5-5-|


[Chorus]
e|---------------5-|-(5)-5-5-5--5-5-5-|-----------------|------------------|
B|---------------7-|-(7)-7-7-5--5-5-5-|-----------------|------------------|
G|-4-4-4-4-4-4-4-6-|-(6)-6-6-6--6-6-6-|-7-7-7-7-7-7-7-7-|-(7)-7-7----------|
D|-4-4-4-4-4-4-4---|------------------|-5-5-5-5-5-5-5-7-|-(7)-7-7-7--7-7-7-|
A|-2-2-2-2-2-2-2---|------------------|---------------5-|-(5)-5-5-7--7-7-7-|
E|-----------------|------------------|-----------------|---------5--5-5-5-|


e|---------------5-|-(5)-5-5-5--5-5-10-|-(10)-10-10-10--10-10-10-|-(10)-10-10-10--10-10--|
B|---------------7-|-(7)-7-7-5--5-5-10-|-(10)-10-10-14--14-14-12-|-(12)-12-12-10--10-10--|
G|-4-4-4-4-4-4-4-6-|-(6)-6-6-6--6-6-11-|-(11)-11-11-11--11-11-11-|-(11)-11-11-11--11-11--|
D|-4-4-4-4-4-4-4---|----------------12-|-(12)-12-12-12--12-12-12-|-(12)-12-12-12--12-12--|
A|-2-2-2-2-2-2-2---|-------------------|-------------------------|-----------------------|
E|-----------------|-------------------|-------------------------|-----------------------|


e|---------------5-|-(5)-5-5-5--5-5-5-|-----------------|------------------|
B|---------------7-|-(7)-7-7-5--5-5-5-|-----------------|------------------|
G|-4-4-4-4-4-4-4-6-|-(6)-6-6-6--6-6-6-|-7-7-7-7-7-7-7-7-|-(7)-7-7----------|
D|-4-4-4-4-4-4-4---|------------------|-5-5-5-5-5-5-5-7-|-(7)-7-7-7--7-7-7-|
A|-2-2-2-2-2-2-2---|------------------|---------------5-|-(5)-5-5-7--7-7-7-|
E|-----------------|------------------|-----------------|---------5--5-5-5-|


   PM----------------------------------|   PM|
e|-----------------|-----------------|-----------------|
B|-----------------|-----------------|-----------------|
G|-----------------|-----------------|-----------------|
D|-----------------|-----------------|---5-----5-5-5-5-|
A|-5-5-5-5-5-5-5-5-|-5-5-5-5-5-5-5-5-|-5-5-5-5-5-5-5-5-|
E|-3-3-3-3-3-3-3-3-|-3-3-3-3-3-3-3-3-|-3-3-3-3-3-3-3-3-|


e|---------------|-------------------|-----------------|-------------------|
B|---------------|-------------------|-10-x-x-10--5-5--|-(5)-5-5-5-5-5-5-5-|
G|-4--4--4-4-4-2-|-(2)-2-2-2-2-2-2-2-|-11-x-x-11--6-6--|-(6)-6-6-6-6-6-6-6-|
D|-4--4--4-4-4-4-|-(4)-4-4-4-4-4-4-4-|-12-x-x-12--7-7--|-(7)-7-7-7-7-7-7-7-|
A|-2--2--2-2-2-4-|-(4)-4-4-4-4-4-4-4-|-12-x-x-12--7-7--|-(7)-7-7-7-7-7-7-7-|
E|-------------2-|-(2)-2-2-2-2-2-2-2-|-----------------|-------------------|


e|---------------|-------------------|-------------|-------------|
B|---------------|-------------------|-------------|-----3-3--3--|
G|-4--4--4-4-4-2-|-(2)-2-2-2-2-2-2-2-|-------------|-----2-2--2--|
D|-4--4--4-4-4-4-|-(4)-4-4-4-4-4-4-4-|-5---5-5---2-|-2---0-0--0--|
A|-2--2--2-2-2-4-|-(4)-4-4-4-4-4-4-4-|-5---5-5---2-|-2-----------|
E|-------------2-|-(2)-2-2-2-2-2-2-2-|-3---2-2---0-|-0-----------|


[Intro Riff]
e|---------------|-------------------|-----------------|-------------------|
B|-0--0-0-0-0--0-|-(0)-0-0-0-0-0-0-0-|--0--0---0--0--0-|-(0)-0-0-0-0-0-0-0-|
G|-4--4-4-6-7--2-|-(2)-2-2-2-2-2-2-2-|-11-12--11--9--6-|-(6)-6-6-6-6-6-6-6-|
D|---------------|-------------------|-----------------|-------------------|
A|---------------|-------------------|-----------------|-------------------|
E|---------------|-------------------|-----------------|-------------------|


e|----------------|-----------------------|-----------------|-------------------|
B|-0--0-0-0-0---0-|--(0)--0--0--0---0--0--|--0--0---0--0--0-|-(0)-0-0-0-0-0-0-0-|
G|-4--4-4-6-7--14-|-(14)-14-14-11--11-11--|-11-12--11--9--6-|-(6)-6-6-6-6-6-6-6-|
D|----------------|-----------------------|-----------------|-------------------|
A|----------------|-----------------------|-----------------|-------------------|
E|----------------|-----------------------|-----------------|-------------------|


[Verse 2]
e|----------|---------|-----------------|------------------|
B|----------|---------|-----------------|------------------|
G|-4--------|---------|-4-4-4-4-------7-|-(7)-7-7----------|
D|-4--------|---------|-4-4-4-4-4-4-4-7-|-(7)-7-7-7--7-7-7-|
A|-2--------|---------|-2-2-2-2-4-4-4-5-|-(5)-5-5-7--7-7-7-|
E|----------|---------|---------2-2-2---|---------5--5-5-5-|


e|----------|---------|-----------------|----------------------|
B|----------|---------|-----------------|---------10--10-10-10-|
G|-4--------|---------|-4-4-4-4-4-4-4-7-|-(7)-7-7-11--11-11-11-|
D|-4--------|---------|-4-4-4-4-4-4-4-7-|-(7)-7-7-11--11-11-11-|
A|-2--------|---------|-2-2-2-2-2-2-2-5-|-(5)-5-5--9---9--9--9-|
E|----------|---------|-----------------|----------------------|


   PM------------------------------|
e|-----------------|-----------------|-----------------|------------------|
B|-----------------|-----------------|-----------------|------------------|
G|-----------------|-----------------|-4-4-4-4-------7-|-(7)-7-7----------|
D|-4-4-4-4---------|-7-7-7-7---------|-4-4-4-4-4-4-4-7-|-(7)-7-7-7--7-7-7-|
A|-2-2-2-2-4-4-4-4-|-5-5-5-5-7-7-7-7-|-2-2-2-2-4-4-4-5-|-(5)-5-5-7--7-7-7-|
E|---------2-2-2-2-|---------5-5-5-5-|---------2-2-2---|---------5--5-5-5-|


e|----------|-----------------|---------------|-----------------|
B|----------|-----------------|---------------|-----------------|
G|-4--------|-(4)----(4)-11---|-4--4-6-6--6-7-|-7--7-9-9-11-11--|
D|----------|-----------------|---------------|-----------------|
A|-2--------|-(2)----(2)--9---|-2--2-4-4--4-5-|-5--5-7-7--9--9--|
E|----------|-----------------|---------------|-----------------|


[Pre-Chorus 2]
e|----------------|----------------|-----------------|-----------------|
B|----------------|----------------|-----------------|-----------------|
G|----------------|----------------|-4-4-4-4-4-4-4-4-|-2-2-2-2-2-2-2-2-|
D|-5--5-5-5-5-5-5-|-5--5-5-5-5-5-5-|-4-4-4-4-4-4-4-4-|-4-4-4-4-4-4-4-4-|
A|-5--5-5-5-5-5-5-|-5--5-5-5-5-5-5-|-2-2-2-2-2-2-2-2-|-4-4-4-4-4-4-4-4-|
E|-3--3-3-3-3-3-3-|-3--3-3-3-3-3-3-|-----------------|-2-2-2-2-2-2-2-2-|


   PM----------|
e|-----------------|-----------------|------------------|-----------------------|
B|-----------------|-----------------|---------------10-|-(10)-10-10-10--10-10--|
G|-----------------|-----------------|-4-4-4-4-4-4-4-11-|-(11)-11-11-11--11-11--|
D|---------------5-|-5-5-5-5-5-5-5-5-|-4-4-4-4-4-4-4-11-|-(11)-11-11-11--11-11--|
A|-5-5-5-5-5-5-5-5-|-5-5-5-5-5-5-5-5-|-2-2-2-2-2-2-2--9-|--(9)--9--9--9---9--9--|
E|-3-3-3-3-3-3-3-3-|-3-3-3-3-3-3-3-3-|------------------|-----------------------|


      PM------|
e|----------------|-------------------|-----------------|-----------------|
B|----------------|-------------------|-----------------|-----------------|
G|----------------|-------------------|-4-4-4-4-4-4-4-4-|-2-2-2-2-2-2-2-2-|
D|-5------------5-|-(5)-5-5-5-5-5-5-5-|-4-4-4-4-4-4-4-4-|-4-4-4-4-4-4-4-4-|
A|-5--5-5-5-5-5-5-|-(5)-5-5-5-5-5-5-5-|-2-2-2-2-2-2-2-2-|-4-4-4-4-4-4-4-4-|
E|-3--3-3-3-3-3-3-|-(3)-3-3-3-3-3-3-3-|-----------------|-2-2-2-2-2-2-2-2-|


   PM------------------------------|
e|-----------------|-----------------|-----------------|-----------------|
B|-----------------|-----------------|-----------------|-----------------|
G|-----------------|-----------------|-----------------|-----------------|
D|-----------------|-----------------|-7-7-7-7-7-7-7-7-|-7-7-7-7-7-7-7-7-|
A|-5-5-5-5-5-5-5-5-|-5-5-5-5-5-5-5-5-|-7-7-7-7-7-7-7-7-|-7-7-7-7-7-7-7-7-|
E|-3-3-3-3-3-3-3-3-|-3-3-3-3-3-3-3-3-|-5-5-5-5-5-5-5-5-|-5-5-5-5-5-5-5-5-|


[Chorus 2]
e|---------------5-|-(5)-5-5-5--5-5-5-|-----------------|------------------|
B|---------------7-|-(7)-7-7-5--5-5-5-|-----------------|------------------|
G|-4-4-4-4-4-4-4-6-|-(6)-6-6-6--6-6-6-|-7-7-7-7-7-7-7-7-|-(7)-7-7----------|
D|-4-4-4-4-4-4-4---|------------------|-5-5-5-5-5-5-5-7-|-(7)-7-7-7--7-7-7-|
A|-2-2-2-2-2-2-2---|------------------|---------------5-|-(5)-5-5-7--7-7-7-|
E|-----------------|------------------|-----------------|---------5--5-5-5-|


e|---------------5-|-(5)-5-5-5--5-5-10-|-(10)-10-10-10--10-10-10-|-(10)-10-10-10--10-10--|
B|---------------7-|-(7)-7-7-5--5-5-10-|-(10)-10-10-14--14-14-12-|-(12)-12-12-10--10-10--|
G|-4-4-4-4-4-4-4-6-|-(6)-6-6-6--6-6-11-|-(11)-11-11-11--11-11-11-|-(11)-11-11-11--11-11--|
D|-4-4-4-4-4-4-4---|----------------12-|-(12)-12-12-12--12-12-12-|-(12)-12-12-12--12-12--|
A|-2-2-2-2-2-2-2---|-------------------|-------------------------|-----------------------|
E|-----------------|-------------------|-------------------------|-----------------------|


e|---------------5-|-(5)-5-5-5--5-5-5-|-----------------|------------------|
B|---------------7-|-(7)-7-7-5--5-5-5-|-----------------|------------------|
G|-4-4-4-4-4-4-4-6-|-(6)-6-6-6--6-6-6-|-7-7-7-7-7-7-7-7-|-(7)-7-7----------|
D|-4-4-4-4-4-4-4---|------------------|-5-5-5-5-5-5-5-7-|-(7)-7-7-7--7-7-7-|
A|-2-2-2-2-2-2-2---|------------------|---------------5-|-(5)-5-5-7--7-7-7-|
E|-----------------|------------------|-----------------|---------5--5-5-5-|


   PM----------------------------------|   PM|
e|-----------------|-----------------|-----------------|
B|-----------------|-----------------|-----------------|
G|-----------------|-----------------|-----------------|
D|-----------------|-----------------|---5-----5-5-5-5-|
A|-5-5-5-5-5-5-5-5-|-5-5-5-5-5-5-5-5-|-5-5-5-5-5-5-5-5-|
E|-3-3-3-3-3-3-3-3-|-3-3-3-3-3-3-3-3-|-3-3-3-3-3-3-3-3-|


e|---------------|-------------------|-----------------|-------------------|
B|---------------|-------------------|-10-x-x-10--5-5--|-(5)-5-5-5-5-5-5-5-|
G|-4--4--4-4-4-2-|-(2)-2-2-2-2-2-2-2-|-11-x-x-11--6-6--|-(6)-6-6-6-6-6-6-6-|
D|-4--4--4-4-4-4-|-(4)-4-4-4-4-4-4-4-|-12-x-x-12--7-7--|-(7)-7-7-7-7-7-7-7-|
A|-2--2--2-2-2-4-|-(4)-4-4-4-4-4-4-4-|-12-x-x-12--7-7--|-(7)-7-7-7-7-7-7-7-|
E|-------------2-|-(2)-2-2-2-2-2-2-2-|-----------------|-------------------|


e|---------------|-------------------|-------------|-------------|
B|---------------|-------------------|-------------|-----3-3--3--|
G|-4--4--4-4-4-2-|-(2)-2-2-2-2-2-2-2-|-------------|-----2-2--2--|
D|-4--4--4-4-4-4-|-(4)-4-4-4-4-4-4-4-|-5---5-5---2-|-2---0-0--0--|
A|-2--2--2-2-2-4-|-(4)-4-4-4-4-4-4-4-|-5---5-5---2-|-2-----------|
E|-------------2-|-(2)-2-2-2-2-2-2-2-|-3---2-2---0-|-0-----------|


[Intro Riff]
e|---------------|-------------------|-----------------|-------------------|
B|-0--0-0-0-0--0-|-(0)-0-0-0-0-0-0-0-|--0--0---0--0--0-|-(0)-0-0-0-0-0-0-0-|
G|-4--4-4-6-7--2-|-(2)-2-2-2-2-2-2-2-|-11-12--11--9--6-|-(6)-6-6-6-6-6-6-6-|
D|---------------|-------------------|-----------------|-------------------|
A|---------------|-------------------|-----------------|-------------------|
E|---------------|-------------------|-----------------|-------------------|


e|----------------|-----------------------|-----------------|-------------------|
B|-0--0-0-0-0---0-|--(0)--0--0--0---0--0--|--0--0---0--0--0-|-(0)-0-0-0-0-0-0-0-|
G|-4--4-4-6-7--14-|-(14)-14-14-11--11-11--|-11-12--11--9--6-|-(6)-6-6-6-6-6-6-6-|
D|----------------|-----------------------|-----------------|-------------------|
A|----------------|-----------------------|-----------------|-------------------|
E|----------------|-----------------------|-----------------|-------------------|


[Outro]
e|---------------|-------------------|-----------------|-------------------|
B|-0--0-0-0-0--0-|-(0)-0-0-0-0-0-0-0-|--0--0---0--0--0-|-(0)-0-0-0-0-0-0-0-|
G|-4--4-4-6-7--2-|-(2)-2-2-2-2-2-2-2-|-11-12--11--9--6-|-(6)-6-6-6-6-6-6-6-|
D|---------------|-------------------|-----------------|-------------------|
A|---------------|-------------------|-----------------|-------------------|
E|---------------|-------------------|-----------------|-------------------|


e|----------------|-----------------------|-----------------|-------------------|
B|-0--0-0-0-0---0-|--(0)--0--0--0---0--0--|--0--0---0--0--0-|-(0)-0-0-0-0-0-0-0-|
G|-4--4-4-6-7--14-|-(14)-14-14-11--11-11--|-11-12--11--9--6-|-(6)-6-6-6-6-6-6-6-|
D|----------------|-----------------------|-----------------|-------------------|
A|----------------|-----------------------|-----------------|-------------------|
E|----------------|-----------------------|-----------------|-------------------|


e|----------------|---------------------------|-------------------|---------------------------|
B|-------------10-|-(10)-10-10-10-10-10-10-10-|-------------------|---------------------------|
G|-4--4-4-6-7--11-|-(11)-11-11-11-11-11-11-11-|-11-12--11---9--14-|-(14)-14-14-14-14-14-14-14-|
D|-------------11-|-(11)-11-11-11-11-11-11-11-|-11-11--11--11--14-|-(14)-14-14-14-14-14-14-14-|
A|-2--2-2-4-5---9-|--(9)--9--9--9--9--9--9--9-|--9--9---9---9--12-|-(12)-12-12-12-12-12-12-12-|
E|----------------|---------------------------|-------------------|---------------------------|


e|----------------|---------------------------|-------------------|---------------------------|
B|-------------10-|-(10)-10-10-10-10-10-10-10-|-------------------|---------------------------|
G|-4--4-4-6-7--11-|-(11)-11-11-11-11-11-11-11-|-11-12--11---9--14-|-(14)-14-14-14-14-14-14-14-|
D|-------------11-|-(11)-11-11-11-11-11-11-11-|-11-11--11--11--14-|-(14)-14-14-14-14-14-14-14-|
A|-2--2-2-4-5---9-|--(9)--9--9--9--9--9--9--9-|--9--9---9---9--12-|-(12)-12-12-12-12-12-12-12-|
E|----------------|---------------------------|-------------------|---------------------------|


e|------|
B|------|
G|------|
D|-9----|
A|-9----|
E|-7----|


***********************************

|(n)  Ghost note
| x   Muted note

*********************************** 
Suggest correction
Give kudos to tab author, rate the tab!
1 2 3 4 5
comments
print report bad tab
guest
You may want to rate the tab now too:
select rating
Wanna post a correction for this tab? Suggest correction