Oops, an error
Loading. Please wait.

Suburban Home Bass Tab

version 2
version 2

Whole song

Interactive

25 views 1 this week
no commentswrite comment
1 2 3 4 5
3 more votes to show rating
add to favorites
launch autoscroll
font size
0
reset
guitar tuner
Autoscroll
slow
fast
+/-
esc
set tempo
stop
Help us to improve Ultimate-Guitar.com Take our survey!
×
Author
[Whole song]
G|-------------------------------------------------------------------------------------------------|
D|-------------------------------------------------------------------------------------------------|
A|--4/555-4/555-----------4/555-4/555---------7----------------------------------------------------|
E|--------------6665-5555-------------6665-555-----------------------------------------------------|

G|-------------------------------------------------------------------------------------------------|
D|-------------------------------------------------------------------------------------------------|
A|--4/5555555-----------4/5555555------------------------------------------------------------------|
E|------------6665-5555-----------6665-5555--------------------------------------------------------|

G|----------------------------------------------12-12-11-11-11-11-11-11-11-11-11-11-9-9------------|
D|--------------9-9-9-9-12-12-12-12-12-12-12-12-----------------------------------------12-12-9-9--|
A|--10-10-10-10------------------------------------------------------------------------------------|
E|-------------------------------------------------------------------------------------------------|

G|----------------------------------------------12-12-11-11-11-11-11-11-11-11----------------------|
D|--------------9-9-9-9-12-12-12-12-12-12-12-12----------------------------------------------------|
A|--10-10-10-10------------------------------------------------------------------------------------|
E|-------------------------------------------------------------------------------------------------|

G|-------------------------------------------------------------------------------------------------|
D|-------------------------------------------------------------------------------------------------|
A|-----5-55555555----5-55555555----5-55555555------------------------------------------------------|
E|--555-----------555-----------555----------------------------------------------------------------|

G|-------------------------------------------------------------------------------------------------|
D|-------------------------------------------------------------------------------------------------|
A|--4/555-4/555-----------4/555-4/555--------------------------------------------------------------|
E|--------------6665-5555-------------6665-5551----------------------------------------------------|

G|-------------------------------------------------------------------------------------------------|
D|-------------------------------------------------------------------------------------------------|
A|--4/5555555-----------4/5555555------------------------------------------------------------------|
E|------------6665-5555-----------6665-5555--------------------------------------------------------|

G|----------------------------------------------12-12-11-11-11-11-11-11-11-11-11-11-9-9------------|
D|--------------9-9-9-9-12-12-12-12-12-12-12-12-----------------------------------------12-12-9-9--|
A|--10-10-10-10------------------------------------------------------------------------------------|
E|-------------------------------------------------------------------------------------------------|

G|----------------------------------------------12-12-11-11-11-11-11-11-11-11----------------------|
D|--------------9-9-9-9-12-12-12-12-12-12-12-12----------------------------------------------------|
A|--10-10-10-10------------------------------------------------------------------------------------|
E|-------------------------------------------------------------------------------------------------|

G|-------------------------------------------------------------------------------------------------|
D|-------------------------------------------------------------------------------------------------|
A|-----5-55555555----5-55555555----5-55555555------------------------------------------------------|
E|--555-----------555-----------555----------------------------------------------------------------|

G|-------------------------------------------------------------------------------------------------|
D|--333 -55-33-5-3---------3-5-7-5-3---3-4-5-7--7-7-7-7--------------------------------------------|
A|-----------------5---3-5-----------5-------------------------------------------------------------|
E|-------------------5-----------------------------------------------------------------------------|

G|-------------------------------------------------------------------------------------------------|
D|-------------------------------------------------------------------------------------------------|
A|--4/555-4/555-----------4/555-4/555--------------------------------------------------------------|
E|--------------6665-5555-------------6665-5551----------------------------------------------------|

G|-------------------------------------------------------------------------------------------------|
D|-------------------------------------------------------------------------------------------------|
A|--4/5555555-----------4/5555555------------------------------------------------------------------|
E|------------6665-5555-----------6665-5555--------------------------------------------------------|

G|----------------------------------------------12-12-11-11-11-11-11-11-11-11-11-11-9-9------------|
D|--------------9-9-9-9-12-12-12-12-12-12-12-12-----------------------------------------12-12-9-9--|
A|--10-10-10-10------------------------------------------------------------------------------------|
E|-------------------------------------------------------------------------------------------------|

G|----------------------------------------------12-12-11-11-11-11-11-11-11-11----------------------|
D|--------------9-9-9-9-12-12-12-12-12-12-12-12----------------------------------------------------|
A|--10-10-10-10------------------------------------------------------------------------------------|
E|-------------------------------------------------------------------------------------------------|

G|-------------------------------------------------------------------------------------------------|
D|-------------------------------------------------------------------------------------------------|
A|--555566665--555566665--555566665--5-5-5-5-------------------------------------------------------|
E|-----------5----------5----------5---------------------------------------------------------------|

************************************

| /  Slide up 

************************************
Suggest correction
Give kudos to tab author, rate the tab!
1 2 3 4 5
comments
print report bad tab
guest
You may want to rate the tab now too:
select rating
Wanna post a correction for this tab? Suggest correction