Oops, an error
Loading. Please wait.

Tonyage Bass Tab

40 views 3 this week
no commentswrite comment
1 2 3 4 5
2 more votes to show rating
add to favorites
launch autoscroll
font size
0
reset
guitar tuner
Autoscroll
slow
fast
+/-
esc
set tempo
stop
Help us to improve Ultimate-Guitar.com Take our survey!
×
Author
Difficulty
intermediate
About this tab version
This is the first bass tab of this on Ultimate Guitar, and this is a tab of the studio version of this song. I have a cover of it on youtube, in case you want to hear how it's played: https://www.youtube.com/watch?v=1FU6eWmtpBc. Was this info helpful? Yes No
[Intro] x6

G|------------|
D|------------|
A|---5-4------|
E|-3-----x-6-6|

[Verse] x4 
G|---------------|
D|-5-5-----------|
A|----5-5-4-----3|
E|----------6-x--|
        x1
G|------------------|
D|-5-5--------------|
A|-----5-5-4----3---|
E|-----------6-x-x-6|

[Intro] x6
G|-------------|
D|-------------|
A|----5-4------|
E|--3-----x-6-6|

[Verse] x4 
G|----------------|
D|-5-5------------|
A|-----5-5-4-----3|
E|-----------6-x--|
        x1
G|------------------|
D|-5-5--------------|
A|-----5-5-4----3---|
E|-----------6-x-x-6|

[Interlude]
G|-----------------|-----------------|
D|-----------------|-----------------|
A|---5-4---4-3---6-|--5-4---4-3---3-4|
E|-3-----5-----4---|3-----5-----4----|

G|-----------------|---------------|
D|---8-7---7-6---9-|--8-7---7-6---9|
A|-6-----8-----7---|6-----8-----7--|
E|-----------------|---------------|
 
G|----------------|-------------|-------------|
D|-8-6------------|-------------|-------------|
A|-----9-8-6------|-------4-4-6b|-------4-4-6b|
E|-----------9-8-6|-4-4-6b------|4-4-6b-------|

[Outro] 
G|----------------|----------------| 
D|----------------|----------------|      
A|-8-8------------|8-8-------------| 
E|-----8-8-4-4-6-6|----8-8-4-4-6-6/|  

G|--------------------|------------------------|
D|--------------------|------------------------|
A|-11-11--------------|-11-11------------------|
E|-------11-11-7-7-9-9|-------11-11-7-7-9-9-7-7|

G|-----------------------------------|
D|-----------------------------------|
A|-----------------------------------|
E|-6--6-6--6--6-6--6--6-6--6--6-6--6\|

[Closing Riff]
G|------------|
D|------------|
A|---5-4------|
E|-3-----x-6-6|





************************************

| x   Dead note
| g   Grace note
| (n) Ghost note
| h   Hammer-on
| p   Pull-off
| r   Release
| >   Accented note
| t   Tapping
| b   Bend
| br  Bend release
| pb  Pre-bend
| pbr Pre-bend release
| /   Slide up
| \   Slide down
| ~   Vibrato
| s   Slap
| P   Pop
| PM  Palm mute
| TR  Trill
| N   Tremolo

************************************
Suggest correction
Give kudos to tab author, rate the tab!
1 2 3 4 5
comments
print report bad tab
guest
You may want to rate the tab now too:
select rating
Wanna post a correction for this tab? Suggest correction