Oops, an error
Loading. Please wait.

No More Room In The Freezer bass

75 views 1 this week
no commentswrite comment
1 2 3 4 5
3 more votes to show rating
add to favorites
×
Save as Personal and add changes to this tab that will be seen only by you. Learn more ›
×
You can save this tab as Personal to edit and correct it or add notes. All changes will be seen only by you. Learn more »
launch autoscroll
font size
0
reset
guitar tuner
edit
Autoscroll
slow
fast
+/-
esc
set tempo
stop
Author
Difficulty
I play this song in straight B.

Intro (Follow the rhythm Guitar instead of the lead)

D|---------------------------------------------------------------------------|
A|---------------------------------------------------------------------------|
E|---------------------------------------------------------------------------|
B|0------0------0-----2---4--------------------------------------------------|  

Main riff 
D|---------------------------------------------------------------------------|
A|---------------------------------------------------------------------------|
E|-----------3/4\3-----------------------------------------------------------|
B|0-0-0-0-0-0------111111--111111--441---------------------------------------|

Breakdown bit (x 2)                                      2nd time round
D|--------------------------------------------------|------------------------|
A|--------------------------------------------------|------------------------|
E|--------------------------------------------------|------------------------|
B|000000--000000--000000--111111--111111--111111----|-441--------------------|

End
D|---------------------------------------------------------------------------|
A|---------------------------------------------------------------------------|
E|----32---------------------------------------------------------------------|
B|0000--0000-332-------------------------------------------------------------|

Song Order:
Intro x 6
Main riff (after guitars have played twice X 2)
Breadown X2
Main Riff x 2 (Interupt Guitars during first)
Intro X 6
Main Riff X 2
Breakdown X 2
Main Riff x 2
End X 2

| /  slide up
| \  slide down
| h  hammer-on
| p  pull-off
| ~  vibrato
| +  harmonic
| x  Mute note

            
            
Suggest correction
Creating personal tab
Creating personal tab
You can edit any tab online and save it as your Personal.

You can edit, replace or remove any tab part or add personal notes – all changes will be seen only by you.

Personal tabs can be accessed anytime from any device, even offline.
Learn more »
Give kudos to tab author, rate the tab!
1 2 3 4 5
comments
print report bad tab
guest
You may want to rate the tab now too:
select rating
Wanna post a correction for this tab? Suggest correction