Oops, an error
Loading. Please wait.

Voyage Voyage bass

version 2
version 2

Whole song

Interactive

695 views 6 this week
1 commentread comment
1 2 3 4 5
x 3
add to favorites
×
Save as Personal and add changes to this tab that will be seen only by you. Learn more ›
×
You can save this tab as Personal to edit and correct it or add notes. All changes will be seen only by you. Learn more »
launch autoscroll
font size
0
reset
guitar tuner
edit
Autoscroll
slow
fast
+/-
esc
set tempo
stop
Author
Difficulty
Desireless
Voyage Voyage

 Album Francois CBS 2001

Bass Tabs


Tuning: EADG
Tempo : 124 bpm
Key signature: A flat (LA bemol)  

INTRO: 00:01
G|------------------|------------------|-
D|-6-9-6-9-6--8-9-8-|-6-9-6-9-6--x-8-9-|-
A|------------------|------------------|- X2
E|------------------|------------------|-

G|------------------|------------------|-
D|---8---8----6-8-6-|---8---8----x-6-8-|-
A|-9---9---9--------|-9---9---9--------|- 
E|------------------|------------------|-

G|------------------|------------------|-
D|-6-9-6-9-6--8-9-8-|-6-9-6-9-6--x-8-9-|-
A|------------------|------------------|- 
E|------------------|------------------|-

Verse1: 00:16
G|------------------|------------------|-
D|-6-9-6-9-6--8-9-8-|-6-9-6-9-6--x-8-9-|-
A|------------------|------------------|- X2
E|------------------|------------------|-
Au dessus des vieux volcans
Glissent des ailes sous le tapis du vent

G|------------------|------------------|-
D|---8---8----6-8-6-|---8---8----x-6-8-|-
A|-9---9---9--------|-9---9---9--------|- 
E|------------------|------------------|-
Voyage voyage... eternellement

G|------------------|------------------|-
D|-6-9-6-9-6--8-9-8-|-6-9-6-9-6--x-8-9-|-
A|------------------|------------------|- 
E|------------------|------------------|-

Part2: 00:32
G|------------------|------------------|-
D|-6-9-6-9-6--8-9-8-|-6-9-6-9-6--x-8-9-|-
A|------------------|------------------|- X2
E|------------------|------------------|-
De nuages aux marecages
De vent d'Espagne en pluie d'Equateur

G|------------------|------------------|-
D|---8---8----6-8-6-|---8---8----x-6-8-|-
A|-9---9---9--------|-9---9---9--------|- 
E|------------------|------------------|-
Voyage, voyage... vol dans les hauteurs

G|------------------|------------------|-
D|-6-9-6-9-6--8-9-8-|-6-9-6-9-6--x-8-9-|-
A|------------------|------------------|- 
E|------------------|------------------|-

Pre-Chorus: 00:46
G|------------------|------------------|-
D|-6-9-6-9-6--8-9-8-|-6-9-6-9-6--x-8-9-|-
A|------------------|------------------|- 
E|------------------|------------------|-
Au dessus des Capitales,
G|------------------|------------------|-
D|---6---6----4-6-4-|---6---6----x-4-6-|-
A|-7---7---7--------|-7---7---7--------|- 
E|------------------|------------------|-
Des idees fatales, regardent l'Ocean,
G|------------------|------------------|-
D|---8---8----6-8-6-|------------------|-
A|-9---9---9--------|-9.---------------|- 
E|------------------|------------------|-
 

Chorus: 01:21
G|---------------|---------------|---------------|---------------|-
D|---6---6---6---|---2---2---2---|---8---8---8---|---4---4---4---|-
A|-7---7---7---7-|-4---4---4---4-|-9---9---9---9-|-6---6---6---6-|- X4
E|---------------|---------------|---------------|---------------|-
Voyage voyage... 
Plus loin que la nuit et le jour,
Voyage...
Dans l'espace qui nourrit de l'Amour,
Voyage voyage...
Sur l'eau sacree d'un peuple Indien,
Voyage...
Et jamais ne revient.
    
Bridge: 01:30
G|------------------|------------------|-
D|-6-9-6-9-6--8-9-8-|-6-9-6-9-6--x-8-9-|-
A|------------------|------------------|- x2
E|------------------|------------------|-

G|------------------|------------------|-
D|---8---8----6-8-6-|------------------|-
A|-9---9---9--------|-9.---------------|- 
E|------------------|------------------|-

                                    
Verse3: 00:28
G|------------------|------------------|-
D|-6-9-6-9-6--8-9-8-|-6-9-6-9-6--x-8-9-|-
A|------------------|------------------|- x2
E|------------------|------------------|-
Sur le Gange ou l'amazone
Chez les blacks, chez les Zicks, chez les Jaunes,

G|------------------|------------------|-
D|---8---8----6-8-6-|---8---8----x-6-8-|-
A|-9---9---9--------|-9---9---9--------|- 
E|------------------|------------------|-
Voyage, Voyage...
Dans tout le Royaume,

G|------------------|------------------|-
D|-6-9-6-9-6--8-9-8-|-6-9-6-9-6--x-8-9-|-
A|------------------|------------------|- 
E|------------------|------------------|-

Part2: 01:57
G|------------------|------------------|-
D|-6-9-6-9-6--8-9-8-|-6-9-6-9-6--x-8-9-|-
A|------------------|------------------|- X2
E|------------------|------------------|-
Sur les dunes du Sahara,
Des Iles Fidji au Fujiyama,

G|------------------|------------------|-
D|---8---8----6-8-6-|---8---8----x-6-8-|-
A|-9---9---9--------|-9---9---9--------|- 
E|------------------|------------------|-
Voyage, Voyage...
Ne t'arrete pas,

G|------------------|------------------|-
D|-6-9-6-9-6--8-9-8-|-6-9-6-9-6--x-8-9-|-
A|------------------|------------------|- 
E|------------------|------------------|-

Pre-Chorus: 02:11
G|------------------|------------------|-
D|-6-9-6-9-6--8-9-8-|-6-9-6-9-6--x-8-9-|-
A|------------------|------------------|- 
E|------------------|------------------|-
Au dessus des barbeles,
G|------------------|------------------|-
D|---6---6----4-6-4-|---6---6----x-4-6-|-
A|-7---7---7--------|-7---7---7--------|- 
E|------------------|------------------|-
Des coeurs bombardes, regardent l'Ocean 
G|------------------|------------------|-
D|---8---8----6-8-6-|------------------|-
A|-9---9---9--------|-9.---------------|- 
E|------------------|------------------|-


Chorus: 02:23
G|---------------|---------------|---------------|---------------|-
D|---6---6---6---|---2---2---2---|---8---8---8---|---4---4---4---|-
A|-7---7---7---7-|-4---4---4---4-|-9---9---9---9-|-6---6---6---6-|- X4
E|---------------|---------------|---------------|---------------|-
Voyage voyage... 
Plus loin que la nuit et le jour,
Voyage...
Dans l'espace qui nourrit de l'Amour,
Voyage voyage...
Sur l'eau sacree d'un peuple Indien,
Voyage...
Et jamais ne revient.

Bridge: 02:55
G|------------------|------------------|-
D|-6-9-6-9-6--8-9-8-|-6-9-6-9-6--x-8-9-|-
A|------------------|------------------|- X2
E|------------------|------------------|-

G|------------------|------------------|-
D|---8---8----6-8-6-|------------------|-
A|-9---9---9--------|-9.---------------|- 
E|------------------|------------------|-

Instrumental: 03:07
G|------------------|------------------|-
D|-6-9-6-9-6--8-9-8-|-6-9-6-9-6--x-8-9-|-
A|------------------|------------------|- X2
E|------------------|------------------|-

G|------------------|------------------|-
D|---8---8----6-8-6-|---8---8----x-6-8-|-
A|-9---9---9--------|-9---9---9--------|- 
E|------------------|------------------|-

G|------------------|------------------|-
D|-6-9-6-9-6--8-9-8-|-6-9-6-9-6--x-8-9-|-
A|------------------|------------------|- 
E|------------------|------------------|-

Pre-Chorus: 03:21
G|------------------|------------------|-
D|-6-9-6-9-6--8-9-8-|-6-9-6-9-6--x-8-9-|-
A|------------------|------------------|- 
E|------------------|------------------|-
Au dessus des Capitales,
G|------------------|------------------|-
D|---6---6----4-6-4-|---6---6----x-4-6-|-
A|-7---7---7--------|-7---7---7--------|- 
E|------------------|------------------|-
Des idees fatales, regardent l'Ocean,
G|------------------|------------------|-
D|---8---8----6-8-6-|------------------|-
A|-9---9---9--------|-9.---------------|- 
E|------------------|------------------|-

Chorus: 03:34
G|---------------|---------------|---------------|---------------|-
D|---6---6---6---|---2---2---2---|---8---8---8---|---4---4---4---|-
A|-7---7---7---7-|-4---4---4---4-|-9---9---9---9-|-6---6---6---6-|- X4
E|---------------|---------------|---------------|---------------|-
Voyage voyage... 
Plus loin que la nuit et le jour,
Voyage...
Dans l'espace qui nourrit de l'Amour,
Voyage voyage...
Sur l'eau sacree d'un peuple Indien,
Voyage...
Et jamais ne revient.


Outro: 04:05 (fading out...)
G|---------------|---------------|---------------|---------------|-
D|---6---6---6---|---2---2---2---|---8---8---8---|---4---4---4---|-
A|-7---7---7---7-|-4---4---4---4-|-9---9---9---9-|-6---6---6---6-|- X4
E|---------------|---------------|---------------|---------------|-
Voyage voyage... 
Plus loin que la nuit et le jour,
Voyage...
Dans l'espace qui nourrit de l'Amour,
Voyage voyage...
Sur l'eau sacree d'un peuple Indien,
Voyage...
Et jamais ne revient.


End: 04:24



Tablature Legend ----------------  
| S  slap 
| P  pop 
| .  full stop
| x  mute note 
| /  slide up 
| \  slide down 
| h  hammer-on 
| p  pull-off 
| g  grace note 
| ~  vibrato 
| ^  brush up
Suggest correction
Creating personal tab
Creating personal tab
You can edit any tab online and save it as your Personal.

You can edit, replace or remove any tab part or add personal notes – all changes will be seen only by you.

Personal tabs can be accessed anytime from any device, even offline.
Learn more »
Give kudos to tab author, rate the tab!
1 2 3 4 5
comments
print report bad tab
1 comment total.
0 reply
Bruno Frenchy 4,604 Sep 01, 2015 04:51 AM

Ce n'est pas souvent que je publie une tablature pour une chanson "Made in France"... Mais je ferai une petite exception pour 1986 Voyage Voyage qui fut un Hit au Rouyaume Uni fin des annees 80...

It's not very often that I post a tab from a French song but I'll make one exception here for Voyage Voyage which was a hit in UK late 80's...

PS: I also tabbed "La Vie en Rose"... but a Grace Jones version though... LOL

So enjoy and rate !!

Bruno Frenchy

guest
You may want to rate the tab now too:
select rating
Wanna post a correction for this tab? Suggest correction