Oops, an error
Loading. Please wait.

Endlessly Tab

6,667 views 1 this week
no commentswrite comment
1 2 3 4 5
please rate
add to favorites
launch autoscroll
font size
0
reset
how to read this tab
guitar tuner
Autoscroll
slow
fast
+/-
esc
set tempo
stop
Help us to improve Ultimate-Guitar.com Take our survey!
×
Author
Endlessly (Electric)
Desperation Band

Intro (2x)
---------------------------------------------------------------------------------------|
---------------------------------------------------------------------------------------|
-9-9-9-9-8-8-8-8-9-9-9-9-11-11-11-11-14-14-14-14-13-13-13-13-14-14-14-14-13-13-13-13---|
---------------------------------------------------------------------------------------|
-7-9-9-9-6-6-6-6-7-7-7-7-9--9--9--9--12-12-12-12-11-11-11-11-12-12-12-12-11-11-11-11---|
---------------------------------------------------------------------------------------|

------------------------------------|
------------------------------------|
-8-8-8-6-6-6-8-8-9-9-6-6-6-8-8-8-9--|
------------------------------------|
-6-6-6-4-4-4-6-6-7-7-4-4-4-6-6-6-7--|
------------------------------------|

Verse
Savior of my soul,
e----------|
G-8--------|
D-9--------|
Lover of my life,
e----------|
G-9--------|
D-9--------|
I love You endlessly,
e----------|
G-9--------|
D-9--------|
Passion of my heart,
Everything You are,
I love You endlessly.

Pre-Chorus
You love me,
Before I knew of You,
You love me,
Now I give it back to You.

Chorus
E                    A
   With Your Majesty here,
             C#m
I fall to my knees,
    A             E
I love You endlessly,
                        A
With the beauty of Your Son,
               C#m
I find myself undone.
    A             E
I love You endlessly.

Verse

Pre-Chorus

Chorus

Intro (2x hold the E a little longer on the last time)

Pre-Chorus (2x Real soft just symbols and Bass)

Brake (1 Measure)

Intro (2x)

Chorus

Intro (2x)
Suggest correction
Give kudos to tab author, rate the tab!
1 2 3 4 5
comments
print report bad tab
guest
You may want to rate the tab now too:
select rating
Wanna post a correction for this tab? Suggest correction