Oops, an error
Loading. Please wait.

Freedom Song Bass Tab

1,533 views 6 this week
no commentswrite comment
1 2 3 4 5
please rate
add to favorites
launch autoscroll
font size
0
reset
guitar tuner
Autoscroll
slow
fast
+/-
esc
set tempo
stop
Help us to improve Ultimate-Guitar.com Take our survey!
×
Author
Difficulty
novice
Desperation Band - Freedom Song(Bass Tab)
Enjoy;);)
Intro:
--------------------------------------------------------------------------------------------|x4
----8-9-----8-9-----8-9-----8-9-----9-8-----9-8-----7-9-11-9-8-9----------------------------|
----------------7-7-----7-7-----9-9-----9-9-----7-7-----------------------------------------|
7-7-----7-7---------------------------------------------------------------------------------|

Verse 1:
--------------------------------------------------------------------------------------------|
--------------------------------------------------------------------------------------------|
2-2-2-2-------------------------2-2-2-2-------------------------2-2-2-2---------------------|
--------2-2-2-2-4-4-4-4-0-0-0-0---------2-2-2-2-4-4-4-4-0-0-0-0---------2-2-2-2-4-4-4-4-----|

--------------------------------------------------------------------------------------------|
--------------------------------------------------------------------------------------------|
--------2-2-2-2---------------------------------------------------------4-4-4-4-4-4-4-4-----|
0-0-0-0---------2-2-2-2-4-4-4-4-0-0-0-0-2-2-2-2-2-2-2-2-0-0-0-0-0-0-0-0---------------------|

Chorus:
--------------------------------------------------------------------------------------------|x2
--------------------------------------------------------------------------------------------|
----------------7-7-7-7-7-7-7-7-9-9-9-9-9-9-9-9-7-7-7-7-7-7-7-7-----------------------------|
7-7-7-7-7-7-7-7-------------------------------------------------7-7-7-7-7-7-7-7-------------|

--------------------------------------------------------------------------------------------|
--------------------------------------------------------------------------------------------|
11-11-11-11-11-11-11-11-9-9-9-9-9-9-9-9-7-7-7-7-7-7-7-7-------------------------------------|
--------------------------------------------------------------------------------------------|

Verse 2:
--------------------------------------------------------------------------------------------|x4
----8-9-----8-9-----8-9-----8-9-----9-8-----9-8-----7-9-11-9-8-9----------------------------|
----------------7-7-----7-7-----9-9-----9-9-----7-7-----------------------------------------|
7-7-----7-7---------------------------------------------------------------------------------|

--------------------------------------------------------------------------------------------|
--------------------------------------------------------------------------------------------|
2-2-2-2-------------------------2-2-2-2-------------------------2-2-2-2---------------------|
--------2-2-2-2-4-4-4-4-0-0-0-0---------2-2-2-2-4-4-4-4-0-0-0-0---------2-2-2-2-4-4-4-4-----|

--------------------------------------------------------------------------------------------|
--------------------------------------------------------------------------------------------|
--------2-2-2-2---------------------------------------------------------4-4-4-4-4-4-4-4-----|
0-0-0-0---------2-2-2-2-4-4-4-4-0-0-0-0-2-2-2-2-2-2-2-2-0-0-0-0-0-0-0-0---------------------|

Chorus:
--------------------------------------------------------------------------------------------|x2
--------------------------------------------------------------------------------------------|
----------------7-7-7-7-7-7-7-7-9-9-9-9-9-9-9-9-7-7-7-7-7-7-7-7-----------------------------|
7-7-7-7-7-7-7-7-------------------------------------------------7-7-7-7-7-7-7-7-------------|

--------------------------------------------------------------------------------------------|
--------------------------------------------------------------------------------------------|
11-11-11-11-11-11-11-11-9-9-9-9-9-9-9-9-7-7-7-7-7-7-7-7-------------------------------------|
--------------------------------------------------------------------------------------------|

Bridge:
--------------------------------------------------------------------------------------------|
--------------------------------------------------------------------------------------------|
--------11-11-----9-9-----7-7-------------11-11-----9-9-----7-7-----------------------------|
7-7-------------------------------7-7-------------------------------------------------------|

--------------------------------------------------------------------------------------------|
--------------------------------------------------------------------------------------------|
--------------------------------11-11-11-11-11-11-11-11-11-11-11-11-11-11-11-11-------------|
7-7-7-7-7-7-7-7-7-7-7-7-7-7-7-7-------------------------------------------------------------|

--------------------------------------------------------------------------------------------|
--------------------------------------------------------------------------------------------|
9-9-9-9-9-9-9-9-9-9-9-9-9-9-9-9-7-7-7-7-7-7-7-7-7-7-7-7-7-7-7-7-----------------------------|
--------------------------------------------------------------------------------------------|

Chorus:
--------------------------------------------------------------------------------------------|
--------------------------------------------------------------------------------------------|
----------------7-7-7-7-7-7-7-7-9-9-9-9-9-9-9-9-7-7-7-7-7-7-7-7-----------------------------|
7-7-7-7-7-7-7-7-------------------------------------------------7-7-7-7-7-7-7-7-------------|

--------------------------------------------------------------------------------------------|
--------------------------------------------------------------------------------------------|
11-11-11-11-11-11-11-11-9-9-9-9-9-9-9-9-7-7-7-7-7-7-7-7-------------------------------------|
--------------------------------------------------------------------------------------------|

Intro:
--------------------------------------------------------------------------------------------|
----8-9-----8-9-----8-9-----8-9-----9-8-----9-8-----7-9-11-9-8-9----------------------------|
----------------7-7-----7-7-----9-9-----9-9-----7-7-----------------------------------------|
7-7-----7-7---------------------------------------------------------------------------------|

If you want you can contact me at
bad_boys181@hotmail.com
Suggest correction
Give kudos to tab author, rate the tab!
1 2 3 4 5
comments
print report bad tab
guest
You may want to rate the tab now too:
select rating
Please do not post tabs as comments. Select "correction" instead!