Oops, an error
Loading. Please wait.

Freedom Song Tab

version 1
version 1

Solo

Whole song

1,769 views 1 this week
no commentswrite comment
1 2 3 4 5
3 more votes to show rating
add to favorites
launch autoscroll
font size
0
reset
how to read this tab
guitar tuner
Autoscroll
slow
fast
+/-
esc
set tempo
stop
Help us to improve Ultimate-Guitar.com Take our survey!
×
Author
Difficulty
intermediate
BAND: Desperation Band
SONG: Freedom Song

TABBED BY: MACKAY PAUL

Intro/Main Lead Riff:

e|---------------------------------------------------|
b|---------------------------------------------------|
g|---------------------------------------------------| Repeat Twice
D|---3-4---3-4---3-4---3-4---4-3--4-3---3-4-6-4-3-4--|   On Intro 
A|2-2---2-2------------------------------------------|
E|------------0-0---0-0---2-2---2-2--0-0-------------|


2:34 Lead Riff:

e|---------------------------------------------------|
b|---------------------------------------------------|
g|---------------------------------------------------|                      
D|---------------------------------------------------|                    
A|2-2-4-2-2-2-4-2-2-2-4-2-4/6\4-2--------------------|               
E|---------------------------------------------------|


e|---------------------------------------------------|
b|---------------------------------------------------|
g|---------------------------------------------------|
D|---------------------------------------------------|
A|---2-----2-----2-2-4-2-----------------------------|
E|4-4-4-4-4-4-4-4-4-----4----------------------------|



e|---------------------------------------------------|
b|---------------------------------------------------|
g|---------------------------------------------------|
D|---------------------------------------------------|
A|---2-----2-----2-2-4-2-----------------------------|
E|2-2-2-2-2-2-2-2-2-----2----------------------------|



e|---------------------------------------------------|
b|---------------------------------------------------|
g|---------------------------------------------------|
D|---------------------------------------------------|
A|---1-2---2-1---1-2-4-2-1-2-------------------------|
E|0-0---0-0---0-0------------------------------------|


e|---------------------------------------------------|
b|---------------------------------------------------|
g|---------------------------------------------------|
D|-----------------------2/4/6\4---------------------|
A|2-2-4-2-2-2-4-2-2-2-4-2----------------------------|
E|---------------------------------------------------|


e|---------------------------------------------------|
b|---------------------------------------------------|
g|---------------------------------------------------|
D|---------------------------------------------------|
A|---2-----2-----2-2-4-2-----------------------------|
E|4-4-4-4-4-4-4-4-4-----4----------------------------|



e|---------------------------------------------------|
b|---------------------------------------------------|
g|---------------------------------------------------|
D|---------------------------------------------------|
A|---2-----2-----2-2-4-2-----------------------------|
E|2-2-2-2-2-2-2-2-2-----2----------------------------|



e|---------------------------------------------------|
b|---------------------------------------------------|
g|---------------------------------------------------|
D|---------------------------------------------------|
A|---1-2---2-1---1-2-4-2-1-2-------------------------|
E|0-0---0-0---0-0------------------------------------|
Suggest correction
Give kudos to tab author, rate the tab!
1 2 3 4 5
comments
print report bad tab
guest
You may want to rate the tab now too:
select rating
Wanna post a correction for this tab? Suggest correction