Oops, an error
Loading. Please wait.

Here In Your Presence Chords

version 2
version 2

Whole song

44,339 views 12 this week
no commentswrite comment
1 2 3 4 5
excellent!
x 12
add to favorites
launch autoscroll
font size
0
reset
transpose
0
reset
simplify chords
display chords
guitar tuner
Tab Pro tools
  • play this tab
  • loop segment
  • change instrument
  • show fretboard
  • metronome
×
Best way to learn
"Here In Your Presence"
Autoscroll
slow
fast
+/-
esc
set tempo
stop
Contributor
Difficulty
novice
Song   : Here In Your Presence
Artist : Desperation Band
Album  : UPDATE:LIVE
Key    : D
Standard EADGBe tuning

Intro
e|----12----14----------12----14----------12-----14----------12----14--------|
B|-------15----15----------15----15----------15-----15----------15----15-----|
G|-14-------------14-14-------------14-14--------------12-12-------------12--|
D|---------------------------------------------------------------------------|
A|---------------------------------------------------------------------------|
E|---------------------------------------------------------------------------|

e|---------------------------------------------------------------------------|
B|---------------------------------------------------------------------------|
G|-14s16-16s18-18s19-19s21---12--11---11h12-11-------------------------------|
D|---------------------------------------------------------------------------|
A|---------------------------------------------------------------------------|
E|---------------------------------------------------------------------------|

Verse 1
Dsus4           D      Dsus2        D  
Found in your hands, fullness of joy  
Em7                 D/F#    G               Dsus4  D  
Every fear suddenly wiped away here in your presence  

Verse 2
Dsus4      D    Dsus2      D  
All of my gains now fade away  
Em7                 D/F#     G                 Dsus4  D
Every crown no longer on display, here in your presence  

Pre-Chorus
Bm           A                       G  
Heaven is trembling in awe of your wonders  
Bm                     A                    G  
The kings and their kingdoms are standing amazed  

Chorus
             Dsus2   D           A/C#   
Here in your presence, we are undone   
               Bm7     A                         G  
Here in your presence, heaven and earth become one  
             Dsus2   D                A/C#   
Here in your presence, all things are new  
              Bm7      A                       G   
Here in your presence, everything bows before you  

Bridge
   Bm         A          G         D/F#  
Wonderful, beautiful, glorious, matchless in every way

Bridge fill
G|-7~------7s9~----9s14~-----14s18~----|

To Chorus - I think it's tremolo picked
B|----15--17---------------------------|

To Chorus
   Bm         A          G         D/F#              G   A
Wonderful, beautiful, glorious, matchless in every way
comments
print report bad tab
I want to post or [tab]
guest
You may want to rate the tab now too:
select rating
Please do not post tabs as comments. Select "correction" instead!