Oops, an error
Loading. Please wait.

I Am Free Tab

version 1
version 1

Intro

12,704 views 9 this week
no commentswrite comment
1 2 3 4 5
2 more votes to show rating
add to favorites
launch autoscroll
font size
0
reset
how to read this tab
guitar tuner
Autoscroll
slow
fast
+/-
esc
set tempo
stop
Help us to improve Ultimate-Guitar.com Take our survey!
×
Artist: Desperation Band
Album: From the Rooftops
Song: I am Free
copyright

Standard Tuning
Key of D

To play the intro, simply play in first position starting on the 7th fret.
Barre the first 3 strings with your first finger except for the G (you'll find that you 
to move it).


Intro:
[            D (repeat)           ][             G (repeat)        ]
--------------------------------------------------------------------|
--10-10-10-8-8-8-7-7-7-8-8-7-7-8-8---8-8-8-7-7-7--------------------|
--7--7--7--7-7-7-7-7-7-7-7-7-7-7-7---0-0-0-0-0-0--------------------|
--------------------------------------------------9-9-7-7-----7-7---|
----------------------------------------------------------9-9-------|
--------------------------------------------------------------------|


[     Bm7 (repeat)  ***]  [ A (play for sixteen beats just like the others) ]
--------------------------------------------------------------------|
--7-7-7-7-7-7-7-8-7-8-7-----7-7-7-7-7-7-etc......-------------------|
--9-9-9-7-9-7-9-9-9-9-9-----7-7-7-7-7-7-----------------------------|
--------------------------------------------------------------------|
--------------------------------------------------------------------|
--------------------------------------------------------------------|


*** tap your 3rd finger on and off (9-7 or 8-7)  to make it sound
    just like the CD.
Suggest correction
Give kudos to tab author, rate the tab!
1 2 3 4 5
comments
print report bad tab
guest
You may want to rate the tab now too:
select rating
Wanna post a correction for this tab? Suggest correction