Oops, an error
Loading. Please wait.

Mercy Is Falling Bass Tab

1,088 views 1 this week
no commentswrite comment
1 2 3 4 5
3 more votes to show rating
add to favorites
launch autoscroll
font size
0
reset
guitar tuner
Autoscroll
slow
fast
+/-
esc
set tempo
stop
Help us to improve Ultimate-Guitar.com Take our survey!
×
Author
This is my version for this song. Hope that I don't forgot any note. ;)
If you think there is a wrong part or note please contact me.
-----------------------------------------------------------------------

Desperation Band
Mercy Is Falling (Light Up The World)

Tuning: EADG 4-String


INTRO

G|---------------------------------------------------------------|
D|---------------------------------------------------------------|
A|---------------------------------------------------------------|
E|-1-3-3-1-3-3-1-3-3-1-3-1-3-3-3-3-1-3-3-1-3-3-1-3-3-1-3-1-3-3-3-|

G|----------------------------------------------------------|
D|----------------------------------------------------------|
A|----------------------------------------------------------|
E|-1-3-3-1-3-3-1-3-3-1-3-1/6-6--1-3-3-1-3-3-1-3-3-1-3-1/6-6-|


VERSE

G|------------------------------------------------------------------------|
D|-----------8-----------------------------------8------------------------|
A|-10--8-10----10-8-8-8----------------10--8-10----10-8-8-8---------------|
E|----------------------10-10-8-8-6-6-----------------------10-10-8-8-6-6-|

G|-------------------------------------------------------------------|
D|-----------8-------------------------------------------------------|
A|-10--8-10----10-8-8-8----------------------------------------------|
E|----------------------10-10-8-8-6-6--1-3-3-1-3-3-1-3-3-1-3-1-3-3-3-|


CHORUS

G|--------------------------------------------------------|
D|--------------------------------------------------------|
A|---------------3-3-3--5-5-5----------------3-3-3--5-5-5-|
E|-3-3-3--3-3-3----------------3-3-3--3-3-3---------------|

G|----------------------------------------------------------|
D|----------------------------------------------------------|
A|---------------3-3-3--5-5-5-----0---3-2-0---3-3-3-3-5-5-5-|
E|-3-3-3--3-3-3---------------3-3---3-------3---------------|

At End Of Second Chorus:
|----------|
|----------|
|-/10---\0-|
|----------|

Third Chorus End:
G|--------------------------------------------------------|
D|--------------------------------------------------------|
A|---------------3-3-3--5-5-5----------------3-3-3--5-5-5-|
E|-3-3-3--3-3-3----------------5-5-5--5-5-5---------------|

G|-----------------------------------------------------------|
D|-----------------------------------------------------------|
A|---------------3-3-3--3-3-3--2-2-2--2-2-2--3-3-3--3-3-3-\0-|
E|-3-3-3--3-3-3----------------------------------------------|

INTERLUDE 1

G|------------------------------------------------------------------------|
D|-----------8-----------------------------------8------------------------|
A|-10--8-10----10-8-8-8----------------10--8-10----10-8-8-8---------------|
E|----------------------10-10-8-8-6-6-----------------------10-10-8-8-6-6-|

2x:
G|-----------------------------------------------------|
D|-----------------------------------------------------|
A|-----------------------------------------------------|
E|-3-3-3-3-3--/15-15-15-15-15--3-3-3-3-3--/6\3-3-3-3-3-|

  --------------------------------------------|
  --------------------------------------------|
  --------------------------------------------|
  -1-1-1-1-1--1-1-1-1-1--1-1-1-1-1--1-1-1-1-1-|


INTERLUDE 2

G|-----------------------------------------------------------------|
D|-----------------------------------------------------------------|
A|-----------------------------------------------------------------|
E|-0-0-0-0-0-0-0-0-2-2-2-2-2-2-2-2-3-3-3-3-3-3-3-3-5-5-5-5-5-5-5-5-|
                                      2x:
G|---------------------------------|   |-------------------------|
D|---------------------------------|   |-------------------------|
A|---------------------------------|   |-------------------------|
E|-7-7-7-7-7-7-7-7-8-8-8-8-8-8-8-8-|   |-10-10-10-10-10-10-10-10-|
4x:
G|----------------------------|
D|----------------------------|
A|---------------3-3-3--5-5-5-|
E|-3-3-3--3-3-3---------------|


OUTRO

G|------------------------------|
D|------------------------------|
A|------------------------------|
E|-15\1-3-3-1-3-3-1-3-3-1-3-1-3-|

Alternative version for VERSE and INTERLUDE 1
G|------------------------------------- ... -|
D|-----------8------------------------- ... -|
A|-10--8-10----10-8-10-8--------------- ... -|
E|-----------------------10-10-8-8-6-3- ... -|
Suggest correction
Give kudos to tab author, rate the tab!
1 2 3 4 5
comments
print report bad tab
guest
You may want to rate the tab now too:
select rating
Wanna post a correction for this tab? Suggest correction