Oops, an error
Loading. Please wait.

Prologue Tab

978 views 1 this week
no commentswrite comment
1 2 3 4 5
please rate
add to favorites
launch autoscroll
font size
0
reset
how to read this tab
guitar tuner
Autoscroll
slow
fast
+/-
esc
set tempo
stop
Help us to improve Ultimate-Guitar.com Take our survey!
×
Author
Prologue
Desperation Band

Intro (Let these notes ring) (2x)
-----------------------------------------------|
-----------------------------------------------|
--12----------12-11------17---------17-16------|
-----------------------------------------------|
-----------------------------------------------|
-----------------------------------------------|

Make Vary Big (2x) Listen to song for Rythem
-----------------------------------------------|
-----------------------------------------------|
-12---------12/11-------17-------17/16---------|
-----------------------------------------------|
-9-----------9/8---------15-------15/14--------|
-----------------------------------------------|

Ending (Let Ring and die)
–-----------|
------------|
--12--------|
------------|
--9---------|
------------|

After two measures of rest the Drums start
Suggest correction
Give kudos to tab author, rate the tab!
1 2 3 4 5
comments
print report bad tab
guest
You may want to rate the tab now too:
select rating
Please do not post tabs as comments. Select "correction" instead!