Oops, an error
Loading. Please wait.

This Is Our God Tab

1,171 views 1 this week
no commentswrite comment
1 2 3 4 5
3 more votes to show rating
add to favorites
launch autoscroll
font size
0
reset
how to read this tab
guitar tuner
Autoscroll
slow
fast
+/-
esc
set tempo
stop
Help us to improve Ultimate-Guitar.com Take our survey!
×
Author
Difficulty
novice
Song  : This Is Our God
Band  : Desperation Band
Album : My Savior Lives
Key   : G

[Intro]

e|-----------------5---5s7-------------|
B|-----8---8---8-------------7---7-----|
G|-------------------------------------|
D|-------------------------------------|
A|-------------------------------------|
E|-------------------------------------|

[Last round of intro]
e|-----------------5---5s7-------------|
B|-----8---8---8-------------7---7---8-|
G|-------------------------------------|
D|-------------------------------------|
A|-------------------------------------|
E|-------------------------------------|


[Interlude]
e|-----------7-----------7-------7----------------7---------7------7---------|
B|---10--10------10--10------10-------------8--8------8--8------8------------|
G|---------------------------------------------------------------------------|
D|---------------------------------------------------------------------------|
A|---------------------------------------------------------------------------|
E|---------------------------------------------------------------------------|


e|---------10---------10----10----------10----------------7------------------|
B|---8--8------8--8------8--------7--7------7---7--8--10---------------------|
G|---------------------------------------------------------------------------|
D|---------------------------------------------------------------------------|
A|---------------------------------------------------------------------------|
E|---------------------------------------------------------------------------|
Suggest correction
Give kudos to tab author, rate the tab!
1 2 3 4 5
comments
print report bad tab
guest
You may want to rate the tab now too:
select rating
Wanna post a correction for this tab? Suggest correction