Oops, an error
Loading. Please wait.

A Fractured Hand Tab

version 2
version 2

Whole song

Interactive

7,628 views 1 this week
4 commentsread comments
1 2 3 4 5
1 last vote to show rating
add to favorites
launch autoscroll
font size
0
reset
how to read this tab
guitar tuner
Autoscroll
slow
fast
+/-
esc
set tempo
stop
Help us to improve Ultimate-Guitar.com Take our survey!
×
Author
Despised Icon
The Ills of Modern Man (2007)

So I'm sure that this is exactly right and I know theres a few mistakes, but I know its close.

-0-0-0-0--0--0--0--0--0--0--0--0--0--0------|
-8-8-8-9--9--9--9--9--12-12-12-11-11-11-----| Repeat through intro
-9-9-9-12-12-12-12-12-12-12-12-12-12-12-----|
--------------------------------------------|
--------------------------------------------|
--------------------------------------------|


--------------------------------------------|
--------------------------------------------|
--------------------------------------------|
22-2-2222-2-2222-2222-22-2222-2222-22-2222--| x7
22-2-2222-2-2222-2222-22-2222-2222-22-2222--|
00-0-0000-0-0000-0000-00-0000-0000-00-0000--|
.. . .... . .... .... .. .... .... .. ....

-------|
-------|
4------|
4------|
2-5-4--|
--3-2--|
  . .

-----------------------------------------------------|
-----------------------------------------------------|
-----------------------------------------------------|
5-4--------5-4-2s4-4s2-5-4---------------------------|
5-4--2-4-2-5-4---------5-4--2-4-2--------------2*--\-|
3-2--0-2-0-3-2---------3-2--0-2-0-222233330000-------|
     . . .                  . . . ............

------------------------------------------------------|
------------------------------------------------------|
------------------------------------------------------|
------------------------------------------------------|
5544--2244-5544-24444444-5544--2244-7777888877778888--|
3322--0022-3322-02222222-3322--0022-5555666655556666--|
....  .... .... ........ ....  .... ................

-----------------------------------------------------|
-----------------------------------------------------|
-----------------------------------------------------|
5-4--------5-4-2s4-4s2-5-4---------------------------|
5-4--2-4-2-5-4---------5-4--2-4-2--------------2*--\-|
3-2--0-2-0-3-2---------3-2--0-2-0-222233330000-------|
     . . .                  . . . ............

------------------------------------------------------|
------------------------------------------------------|
------------------------------------------------------|
------------------------------------------------------|
5544--2244-5544-24444444-5544--2244-7777888877778888--|
3322--0022-3322-02222222-3322--0022-5555666655556666--|
....  .... .... ........ ....  .... ................

-----------------------------------------------------------------|
-----------------------------------------------------------------|
-----------------------------------------------------------------|
-----------------------------------------------------------------|
7-7-7-7-8-8-8-8-7-7-7-7-8-8-8-8-77777777888888887777777788888888-|
5-5-5-5-6-6-6-6-5-5-5-5-6-6-6-6-55555555666666665555555566666666-|
. . . . . . . . . . . . . . . . ................................

--------------------------------------------------|
--------------------------------------------------|
--------------------------------------------------|
----------------------------------------0-1-0-----|
7-7-7-7-8-8-8-8-7-7-7-7-8-8-8-8-4~--4-4-0-1-0-4---|
5-5-5-5-6-6-6-6-5-5-5-5-6-6-6-6-2~--2-2-------2---|
. . . . . . . . . . . . . . . .     . .       .

------------------------------------13-13--13--13-13/-|
------------------------------------17-17--17--17-17/-|
------------------------------------------------------|
------------------------------------------------------|
5544--2244-5544----------5544--2244-------------------|
3322--0022-3322----------3322--0022-------------------|
....  .... ....          ....  ....

-------------------------|
-------------------------|
-------------------------|x2
-------------------------|
5544--2244-5544-24444444-|
3322--0022-3322-02222222-|
....  .... .... ........

------------------------------------13-13--13--13-13/-|
------------------------------------17-17--17--17-17/-|
------------------------------------------------------|
------------------------------------------------------|
5544--2244-5544-24444444-5544--2244-------------------|
3322--0022-3322-02222222-3322--0022-------------------|
....  .... .... ........ ....  ....

----------------------------------------|
----------------------------------------|
----------------------------------------|x3
----------------------------------------|
55555544-22222244-55555544-224444444444-|
33333322-00000022-33333322-002222222222-|
........ ........ ........ ............

--------------------------|
--------------------------|
--------------------------|
------------------4-------|
55555544-22222244-4-------|
33333322-00000022-2--////-|
........ ........

Heres where it gets tricky...

--------|-----------------|
--------|-----------------|
--------|-----------------|
7-6-4-6-|-7-6-4-6-4-2-----|
5-4-2-4-|-5-4-2-4-2-0-5~--|
--------|-------------3~--|


-----------------------------------------|
-----------------------------------------|
-----------------------------------------|
-------8--7-6-4-6--7-6-4-6-4-2-----------|
888888-8--5-4-2-4--5-4-2-4-2-0-5-5-5-5-5-|
666666-6-----------------------3-3-3-3-3-|
......
I'm not too sure about this part but its something like this.
--------------------------------------|
--------------------------------------|
777666--------------------------------|
------5555444455557777555544447777----|
--------------------------------------|
--------------------------------------|

                        Guitar I                    play behind backing
----------------------|----------|---------------|------------------|
----------------------|----------|---------------|------------------|
----------------------|-----6666-|---------------|------------------|
----------------------|-4444-----|-7-6-4-6-4-2---|--55-555-555-555--|
2-4-4-2-444-5-4-2-4-5-|----------|-5-4-2-4-2-0-5-|------------------|
0-2-2-0-222-3-2-0-2-3-|----------|-------------3-|------------------|
.     . ...     .


-----------------------------------------------------------|
-----------------------------------------------------------|
777666-----------------------------------------------------|
------5555444455557777555544447777-------------------------|
------------------------------------2-4-4-2-444-5-4-2-4-5--|
------------------------------------0-2-2-0-222-3-2-0-2-3--|
                                    .     . ...     .
      Elevens
--------------------------------------------------------------------------|
--------------------------------------------------------------------------|
---------------------------------77776666----------------------------4444-|
777771111111111114444555544440000--------4444555544440000444422224444-----|
--------------------------------------------------------------------------|
--------------------------------------------------------------------------|
.........................................................................

----------------------------------------------|
----------------------------------------------|
----------------------------------------------|
444422224444----------------------------------|
------------55554444555577775555444422220000--|
----------------------------------------------| x2
............................................
            |---------------------------------| but play this ending the
            |---------------------------------| second time.
            |---------------------------------|
            |---------------------------------|
            |2-4-4-2-444-5-4-2-4-5------------|
            |0-2-2-0-222-3-2-0-2-3------------|
             .     . ...     .
                              Really fast
-----------------------------------96-69-----|
------------------------------85-58--8-------| I'm not too sure about the
--------------------------------6------------| last part but I know I'm
---------------------------------------------| close.
4-5-4-555-4-5-4-555-555-4-5-4----------------|
2-3-2-333-2-3-2-333-333-2-3-2----------------| x2
. . . ... . . . ... ... . . .

-----------------------------------96-69-------129--912-----------1512--1215-|
------------------------------85-58--8--118-811---11---1411--1114-----14-----|
--------------------------------6----------9---------------12----------------|
-----------------------------------------------------------------------------|
4-5-4-555-4-5-4-555-555-4-5-4------------------------------------------------|
2-3-2-333-2-3-2-333-333-2-3-2------------------------------------------------|
. . . ... . . . ... ... . . .

----------1815--1518---| its tough to make out and probably not
1714--1417----17-------| completely correct, but thats the best I can do.
----15-----------------|
-----------------------|
-----------------------|
-----------------------|

-----------------------------------|----------------------------|
-----------------------------------|----------------------------|
-----------------------------------|----------------------------|
-----------------------------------|----------------------------|
10--10-11-10--10--10-10--10--11-11-|-10--10-11-9--9--9-10--8-8--|
--00--------00--00-----00--00------|---00-------00-00----00-----|
  ..        ..  ..     ..  ..          ..       .. ..    ..

---------------------------------------------------------------------|
---------------------------------------------------------------------|
---------------------------------------------------------------------|
---------------------------------------------------------------------|
10--10-11-10--10-11-10--10-11-10--10-11-8--8-9-8--8-9-8--8-9-8--8-9--|
--00--------00--------00--------00-------00-----00-----00-----00-----|
  ..        ..        ..        ..       ..     ..     ..     ..

-----------------------------------------------------------------------------|
-----------------------------------------------------------------------------|
------66666666-----------66777776666-----------------------------------------|
444444--------44444400000-----------4444000055554444555577775555444477775555-|
-----------------------------------------------------------------------------|
-----------------------------------------------------------------------------|
                                            ................................

--------------------------|
--------------------------|
--------------------------|
444455557777555544447777--|
--------------------------|
--------------------------| x2
........................

                            Second time end with this
--------------------------|
--------------------------|
--------------------------|
--------------------------|
2-4-4-2-444-5-4-2-4-5-----|
0-2-2-0-222-3-2-0-2-3-----|
.     . ...     .
                                               x2 Second time
-------------------------------------------------|------------|
-------------------------------------------------|------------|
-------------------------7777777-----------------|------------|
-------------------------5555555-----------------|------------|
4444444446666777766664444-------6666777766662222-|-6-7-6-2-4--|
2222222224444555544442222-------4444555544440000-|-4-5-4-0-2--|
................................................   . . . . .

End

So there you have it! credit for most of the beggining (not intro) goes out to 
escalade, thank you dude.

All the riffs are there, they may not all be exactly right, but its damn close. Just 
to the song, you'll be able to put it together. By the way, this is my second tab. So I 
thats it, please rate!
Suggest correction
Give kudos to tab author, rate the tab!
1 2 3 4 5
comments
print report bad tab
4 comments total. Showing first comments.
0 reply
60cyclehumm 181 Feb 18, 2009 12:31 PM

Seems okay to me.

+2 reply
Pete_KC 1,146 Feb 25, 2009 03:33 PM

I think the intro goes like this but I could be wrong


|---0---0---0---0-|---0---0---0---0-|----0----0----0----0-|----0----0
|-4---4---5---8---|-8---8---8---7---|-12---12---12---11---|-11---11--
|-----------------|-----------------|---------------------|----------
|-----------------|-----------------|---------------------|----------
|-----------------|-----------------|---------------------|----------
|-----------------|-----------------|---------------------|----------

0 reply
Goosehead 10 Jul 22, 2009 03:12 PM

I agree with Pete KC
i just tried playing the intro for the tab and ... it sounded nothing like the song.
then i played PETE THE SNEAKS version and it sounded loads better. thanks pete

guest
You may want to rate the tab now too:
select rating
Wanna post a correction for this tab? Suggest correction